  0
SECTION
  2
HEADER
  9
$ACADVER
  1
AC1015
  9
$ACADMAINTVER
 70
     6
  9
$DWGCODEPAGE
  3
ANSI_1254
  9
$INSBASE
 10
0.0
 20
0.0
 30
0.0
  9
$EXTMIN
 10
0.0
 20
0.0
 30
0.0
  9
$EXTMAX
 10
279.4
 20
215.9
 30
0.0
  9
$LIMMIN
 10
0.0
 20
0.0
  9
$LIMMAX
 10
279.4
 20
215.9
  9
$ORTHOMODE
 70
     0
  9
$REGENMODE
 70
     1
  9
$FILLMODE
 70
     1
  9
$QTEXTMODE
 70
     0
  9
$MIRRTEXT
 70
     1
  9
$LTSCALE
 40
1.0
  9
$ATTMODE
 70
     1
  9
$TEXTSIZE
 40
3.5
  9
$TRACEWID
 40
1.0
  9
$TEXTSTYLE
  7
Standard
  9
$CLAYER
  8
0
  9
$CELTYPE
  6
ByLayer
  9
$CECOLOR
 62
   256
  9
$CELTSCALE
 40
1.0
  9
$DISPSILH
 70
     0
  9
$DIMSCALE
 40
1.0
  9
$DIMASZ
 40
3.5
  9
$DIMEXO
 40
1.0
  9
$DIMDLI
 40
3.75
  9
$DIMRND
 40
0.0
  9
$DIMDLE
 40
0.0
  9
$DIMEXE
 40
1.0
  9
$DIMTP
 40
0.0
  9
$DIMTM
 40
0.0
  9
$DIMTXT
 40
3.5
  9
$DIMCEN
 40
2.5
  9
$DIMTSZ
 40
0.0
  9
$DIMTOL
 70
     0
  9
$DIMLIM
 70
     0
  9
$DIMTIH
 70
     1
  9
$DIMTOH
 70
     1
  9
$DIMSE1
 70
     0
  9
$DIMSE2
 70
     0
  9
$DIMTAD
 70
     1
  9
$DIMZIN
 70
     0
  9
$DIMBLK
  1

  9
$DIMASO
 70
     1
  9
$DIMSHO
 70
     1
  9
$DIMPOST
  1

  9
$DIMAPOST
  1

  9
$DIMALT
 70
     0
  9
$DIMALTD
 70
     3
  9
$DIMALTF
 40
0.0393700787
  9
$DIMLFAC
 40
1.0
  9
$DIMTOFL
 70
     1
  9
$DIMTVP
 40
0.0
  9
$DIMTIX
 70
     0
  9
$DIMSOXD
 70
     0
  9
$DIMSAH
 70
     0
  9
$DIMBLK1
  1

  9
$DIMBLK2
  1

  9
$DIMSTYLE
  2
ISO-25
  9
$DIMCLRD
 70
     0
  9
$DIMCLRE
 70
     0
  9
$DIMCLRT
 70
     0
  9
$DIMTFAC
 40
1.0
  9
$DIMGAP
 40
1.524
  9
$DIMJUST
 70
     0
  9
$DIMSD1
 70
     0
  9
$DIMSD2
 70
     0
  9
$DIMTOLJ
 70
     0
  9
$DIMTZIN
 70
     0
  9
$DIMALTZ
 70
     0
  9
$DIMALTTZ
 70
     0
  9
$DIMUPT
 70
     0
  9
$DIMDEC
 70
     2
  9
$DIMTDEC
 70
     2
  9
$DIMALTU
 70
     2
  9
$DIMALTTD
 70
     3
  9
$DIMTXSTY
  7
Standard
  9
$DIMAUNIT
 70
     0
  9
$DIMADEC
 70
     2
  9
$DIMALTRND
 40
0.0
  9
$DIMAZIN
 70
     0
  9
$DIMDSEP
 70
    44
  9
$DIMATFIT
 70
     3
  9
$DIMFRAC
 70
     0
  9
$DIMLDRBLK
  1

  9
$DIMLUNIT
 70
     2
  9
$DIMLWD
 70
    -2
  9
$DIMLWE
 70
    -2
  9
$DIMTMOVE
 70
     0
  9
$LUNITS
 70
     2
  9
$LUPREC
 70
     2
  9
$SKETCHINC
 40
1.0
  9
$FILLETRAD
 40
10.0
  9
$AUNITS
 70
     0
  9
$AUPREC
 70
     2
  9
$MENU
  1
.
  9
$ELEVATION
 40
0.0
  9
$PELEVATION
 40
0.0
  9
$THICKNESS
 40
0.0
  9
$LIMCHECK
 70
     0
  9
$CHAMFERA
 40
0.0
  9
$CHAMFERB
 40
0.0
  9
$CHAMFERC
 40
0.0
  9
$CHAMFERD
 40
0.0
  9
$SKPOLY
 70
     0
  9
$TDCREATE
 40
2459741.606068021
  9
$TDUCREATE
 40
2459741.481068021
  9
$TDUPDATE
 40
2459741.606068275
  9
$TDUUPDATE
 40
2459741.481068275
  9
$TDINDWG
 40
0.0000000116
  9
$TDUSRTIMER
 40
0.0000000116
  9
$USRTIMER
 70
     1
  9
$ANGBASE
 50
0.0
  9
$ANGDIR
 70
     0
  9
$PDMODE
 70
     0
  9
$PDSIZE
 40
-1.0
  9
$PLINEWID
 40
0.0
  9
$SPLFRAME
 70
     0
  9
$SPLINETYPE
 70
     6
  9
$SPLINESEGS
 70
     8
  9
$HANDSEED
  5
102
  9
$SURFTAB1
 70
     6
  9
$SURFTAB2
 70
     6
  9
$SURFTYPE
 70
     6
  9
$SURFU
 70
     6
  9
$SURFV
 70
     6
  9
$UCSBASE
  2

  9
$UCSNAME
  2

  9
$UCSORG
 10
0.0
 20
0.0
 30
0.0
  9
$UCSXDIR
 10
1.0
 20
0.0
 30
0.0
  9
$UCSYDIR
 10
0.0
 20
1.0
 30
0.0
  9
$UCSORTHOREF
  2

  9
$UCSORTHOVIEW
 70
     0
  9
$UCSORGTOP
 10
0.0
 20
0.0
 30
0.0
  9
$UCSORGBOTTOM
 10
0.0
 20
0.0
 30
0.0
  9
$UCSORGLEFT
 10
0.0
 20
0.0
 30
0.0
  9
$UCSORGRIGHT
 10
0.0
 20
0.0
 30
0.0
  9
$UCSORGFRONT
 10
0.0
 20
0.0
 30
0.0
  9
$UCSORGBACK
 10
0.0
 20
0.0
 30
0.0
  9
$PUCSBASE
  2

  9
$PUCSNAME
  2

  9
$PUCSORG
 10
0.0
 20
0.0
 30
0.0
  9
$PUCSXDIR
 10
1.0
 20
0.0
 30
0.0
  9
$PUCSYDIR
 10
0.0
 20
1.0
 30
0.0
  9
$PUCSORTHOREF
  2

  9
$PUCSORTHOVIEW
 70
     0
  9
$PUCSORGTOP
 10
0.0
 20
0.0
 30
0.0
  9
$PUCSORGBOTTOM
 10
0.0
 20
0.0
 30
0.0
  9
$PUCSORGLEFT
 10
0.0
 20
0.0
 30
0.0
  9
$PUCSORGRIGHT
 10
0.0
 20
0.0
 30
0.0
  9
$PUCSORGFRONT
 10
0.0
 20
0.0
 30
0.0
  9
$PUCSORGBACK
 10
0.0
 20
0.0
 30
0.0
  9
$USERI1
 70
     0
  9
$USERI2
 70
     0
  9
$USERI3
 70
     0
  9
$USERI4
 70
     0
  9
$USERI5
 70
     0
  9
$USERR1
 40
0.0
  9
$USERR2
 40
0.0
  9
$USERR3
 40
0.0
  9
$USERR4
 40
0.0
  9
$USERR5
 40
0.0
  9
$WORLDVIEW
 70
     1
  9
$SHADEDGE
 70
     3
  9
$SHADEDIF
 70
    70
  9
$TILEMODE
 70
     1
  9
$MAXACTVP
 70
    64
  9
$PINSBASE
 10
0.0
 20
0.0
 30
0.0
  9
$PLIMCHECK
 70
     0
  9
$PEXTMIN
 10
1.0000000000E+20
 20
1.0000000000E+20
 30
1.0000000000E+20
  9
$PEXTMAX
 10
-1.0000000000E+20
 20
-1.0000000000E+20
 30
-1.0000000000E+20
  9
$PLIMMIN
 10
0.0
 20
0.0
  9
$PLIMMAX
 10
420.0
 20
297.0
  9
$UNITMODE
 70
     0
  9
$VISRETAIN
 70
     1
  9
$PLINEGEN
 70
     0
  9
$PSLTSCALE
 70
     1
  9
$TREEDEPTH
 70
  3020
  9
$CMLSTYLE
  2
Standard
  9
$CMLJUST
 70
     0
  9
$CMLSCALE
 40
20.0
  9
$PROXYGRAPHICS
 70
     1
  9
$MEASUREMENT
 70
     1
  9
$CELWEIGHT
370
    -1
  9
$ENDCAPS
280
     0
  9
$JOINSTYLE
280
     0
  9
$LWDISPLAY
290
     1
  9
$INSUNITS
 70
     4
  9
$HYPERLINKBASE
  1

  9
$STYLESHEET
  1

  9
$XEDIT
290
     1
  9
$CEPSNTYPE
380
     0
  9
$PSTYLEMODE
290
     1
  9
$FINGERPRINTGUID
  2
{8ce4802e-47a1-45bf-bc50-1513b2e4e9f3}
  9
$VERSIONGUID
  2
{FAEB1C32-E019-11D5-929B-00C0DF256EC4}
  9
$EXTNAMES
290
     1
  9
$PSVPSCALE
 40
0.0
  9
$OLESTARTUP
290
     0
  0
ENDSEC
  0
SECTION
  2
CLASSES
  0
CLASS
  1
ACDBDICTIONARYWDFLT
  2
AcDbDictionaryWithDefault
  3
ObjectDBX Classes
 90
        0
280
     0
281
     0
  0
CLASS
  1
VISUALSTYLE
  2
AcDbVisualStyle
  3
ObjectDBX Classes
 90
     4095
280
     0
281
     0
  0
CLASS
  1
MATERIAL
  2
AcDbMaterial
  3
ObjectDBX Classes
 90
     1153
280
     0
281
     0
  0
CLASS
  1
SCALE
  2
AcDbScale
  3
ObjectDBX Classes
 90
     1153
280
     0
281
     0
  0
CLASS
  1
TABLESTYLE
  2
AcDbTableStyle
  3
ObjectDBX Classes
 90
     4095
280
     0
281
     0
  0
CLASS
  1
MLEADERSTYLE
  2
AcDbMLeaderStyle
  3
ACDB_MLEADERSTYLE_CLASS
 90
     4095
280
     0
281
     0
  0
CLASS
  1
SUN
  2
AcDbSun
  3
SCENEOE
 90
     1153
280
     0
281
     0
  0
CLASS
  1
ACDBPLACEHOLDER
  2
AcDbPlaceHolder
  3
ObjectDBX Classes
 90
        0
280
     0
281
     0
  0
CLASS
  1
LAYOUT
  2
AcDbLayout
  3
ObjectDBX Classes
 90
        0
280
     0
281
     0
  0
ENDSEC
  0
SECTION
  2
TABLES
  0
TABLE
  2
VPORT
  5
8
330
0
100
AcDbSymbolTable
 70
     1
  0
VPORT
  5
29
330
8
100
AcDbSymbolTableRecord
100
AcDbViewportTableRecord
  2
*Active
 70
     0
 10
0.0
 20
0.0
 11
1.0
 21
1.0
 12
139.7
 22
107.95
 13
0.0
 23
0.0
 14
10.0
 24
10.0
 15
10.0
 25
10.0
 16
0.0
 26
0.0
 36
1.0
 17
0.0
 27
0.0
 37
0.0
 40
215.9
 41
1.2941176471
 42
50.0
 43
0.0
 44
0.0
 50
0.0
 51
0.0
 71
     0
 72
  2000
 73
     1
 74
     3
 75
     0
 76
     0
 77
     0
 78
     0
281
     0
 65
     1
110
0.0
120
0.0
130
0.0
111
1.0
121
0.0
131
0.0
112
0.0
122
1.0
132
0.0
 79
     0
146
0.0
  0
ENDTAB
  0
TABLE
  2
LTYPE
  5
5
330
0
100
AcDbSymbolTable
 70
     6
  0
LTYPE
  5
14
330
5
100
AcDbSymbolTableRecord
100
AcDbLinetypeTableRecord
  2
ByBlock
 70
     0
  3

 72
    65
 73
     0
 40
0.0
  0
LTYPE
  5
15
330
5
100
AcDbSymbolTableRecord
100
AcDbLinetypeTableRecord
  2
ByLayer
 70
     0
  3

 72
    65
 73
     0
 40
0.0
  0
LTYPE
  5
16
330
5
100
AcDbSymbolTableRecord
100
AcDbLinetypeTableRecord
  2
Continuous
 70
     0
  3
Solid line
 72
    65
 73
     0
 40
0.0
  0
LTYPE
  5
6E
330
5
100
AcDbSymbolTableRecord
100
AcDbLinetypeTableRecord
  2
HIDDEN
 70
     0
  3
Hidden __ __ __ __ __ __ __ __ __ __ __ __ __ __
 72
    65
 73
     2
 40
1.905
 49
1.27
 74
     0
 49
-0.635
 74
     0
  0
LTYPE
  5
6F
330
5
100
AcDbSymbolTableRecord
100
AcDbLinetypeTableRecord
  2
PHANTOM
 70
     0
  3
Phantom ______  __  __  ______  __  __  ______
 72
    65
 73
     6
 40
12.7
 49
6.35
 74
     0
 49
-1.27
 74
     0
 49
1.27
 74
     0
 49
-1.27
 74
     0
 49
1.27
 74
     0
 49
-1.27
 74
     0
  0
LTYPE
  5
70
330
5
100
AcDbSymbolTableRecord
100
AcDbLinetypeTableRecord
  2
CENTER
 70
     0
  3
Center ____ _ ____ _ ____ _ ____ _ ____ _ ____
 72
    65
 73
     4
 40
10.16
 49
6.35
 74
     0
 49
-1.27
 74
     0
 49
1.27
 74
     0
 49
-1.27
 74
     0
  0
LTYPE
  5
71
330
5
100
AcDbSymbolTableRecord
100
AcDbLinetypeTableRecord
  2
CENTERX2
 70
     0
  3
Center (2x) ________  __  ________  __  _____
 72
    65
 73
     4
 40
20.32
 49
12.7
 74
     0
 49
-2.54
 74
     0
 49
2.54
 74
     0
 49
-2.54
 74
     0
  0
LTYPE
  5
72
330
5
100
AcDbSymbolTableRecord
100
AcDbLinetypeTableRecord
  2
DOT2
 70
     0
  3
Dot (.5x) ........................................
 72
    65
 73
     2
 40
0.635
 49
0.0
 74
     0
 49
-0.635
 74
     0
  0
ENDTAB
  0
TABLE
  2
LAYER
  5
2
330
0
100
AcDbSymbolTable
 70
    17
  0
LAYER
  5
10
330
2
100
AcDbSymbolTableRecord
100
AcDbLayerTableRecord
  2
0
 70
     0
 62
     7
  6
Continuous
370
    -3
390
F
  0
LAYER
  5
73
330
2
100
AcDbSymbolTableRecord
100
AcDbLayerTableRecord
  2
FORMAT
 70
     0
 62
     7
  6
Continuous
370
    -3
390
F
  0
LAYER
  5
74
330
2
100
AcDbSymbolTableRecord
100
AcDbLayerTableRecord
  2
YARDIMCI_GEOMETRI
 70
     0
 62
    -6
  6
Continuous
290
     0
370
    -3
390
F
  0
LAYER
  5
75
330
2
100
AcDbSymbolTableRecord
100
AcDbLayerTableRecord
  2
SAYFA_CERCEVESI
 70
     0
 62
     7
  6
Continuous
370
    25
390
F
  0
LAYER
  5
76
330
2
100
AcDbSymbolTableRecord
100
AcDbLayerTableRecord
  2
ANTET
 70
     0
 62
     7
  6
Continuous
370
    -3
390
F
  0
LAYER
  5
77
330
2
100
AcDbSymbolTableRecord
100
AcDbLayerTableRecord
  2
OLCU
 70
     0
 62
   150
  6
Continuous
370
    -3
390
F
  0
LAYER
  5
78
330
2
100
AcDbSymbolTableRecord
100
AcDbLayerTableRecord
  2
METIN
 70
     0
 62
    96
  6
Continuous
370
    -3
390
F
  0
LAYER
  5
79
330
2
100
AcDbSymbolTableRecord
100
AcDbLayerTableRecord
  2
BALON
 70
     0
 62
     5
  6
Continuous
370
    -3
390
F
  0
LAYER
  5
7A
330
2
100
AcDbSymbolTableRecord
100
AcDbLayerTableRecord
  2
VURGU
 70
     0
 62
     7
  6
Continuous
370
    -3
390
F
  0
LAYER
  5
7B
330
2
100
AcDbSymbolTableRecord
100
AcDbLayerTableRecord
  2
SILIK
 70
     0
 62
     7
  6
Continuous
370
    -3
390
F
  0
LAYER
  5
7C
330
2
100
AcDbSymbolTableRecord
100
AcDbLayerTableRecord
  2
MODEL
 70
     0
 62
     7
  6
Continuous
370
    -3
390
F
  0
LAYER
  5
7D
330
2
100
AcDbSymbolTableRecord
100
AcDbLayerTableRecord
  2
DETAYLANDıRMA
 70
     0
 62
   190
  6
Continuous
370
    -3
390
F
  0
LAYER
  5
7E
330
2
100
AcDbSymbolTableRecord
100
AcDbLayerTableRecord
  2
TOLERANS
 70
     0
 62
   230
  6
Continuous
370
    -3
390
F
  0
LAYER
  5
7F
330
2
100
AcDbSymbolTableRecord
100
AcDbLayerTableRecord
  2
MERKEZ_CIZGILERI
 70
     0
 62
    30
  6
Continuous
370
    -3
390
F
  0
LAYER
  5
80
330
2
100
AcDbSymbolTableRecord
100
AcDbLayerTableRecord
  2
KESIT-DETAY_CIZGILERI
 70
     0
 62
     7
  6
Continuous
370
    -3
390
F
  0
LAYER
  5
81
330
2
100
AcDbSymbolTableRecord
100
AcDbLayerTableRecord
  2
\U+041E\U+0421\U+0415\U+0412\U+042B\U+0415
 70
     0
 62
     7
  6
Continuous
370
    -3
390
F
  0
LAYER
  5
82
330
2
100
AcDbSymbolTableRecord
100
AcDbLayerTableRecord
  2
\U+0412\U+041E\U+0414\U+042F\U+041D\U+042B\U+0415_\U+0417\U+041D\U+0410\U+041A\U+0418
 70
     0
 62
    11
  6
Continuous
370
    -3
390
F
  0
ENDTAB
  0
TABLE
  2
STYLE
  5
3
330
0
100
AcDbSymbolTable
 70
     1
  0
STYLE
  5
11
330
3
100
AcDbSymbolTableRecord
100
AcDbTextStyleTableRecord
  2
Standard
 70
     0
 40
0.0
 41
1.0
 50
0.0
 71
     0
 42
3.5
  3
txt
  4

  0
ENDTAB
  0
TABLE
  2
VIEW
  5
6
330
0
100
AcDbSymbolTable
 70
     0
  0
ENDTAB
  0
TABLE
  2
UCS
  5
7
330
0
100
AcDbSymbolTable
 70
     0
  0
ENDTAB
  0
TABLE
  2
APPID
  5
9
330
0
100
AcDbSymbolTable
 70
     1
  0
APPID
  5
12
330
9
100
AcDbSymbolTableRecord
100
AcDbRegAppTableRecord
  2
ACAD
 70
     0
  0
ENDTAB
  0
TABLE
  2
DIMSTYLE
  5
A
330
0
100
AcDbSymbolTable
 70
     1
100
AcDbDimStyleTable
  0
DIMSTYLE
105
27
330
A
100
AcDbSymbolTableRecord
100
AcDbDimStyleTableRecord
  2
ISO-25
 70
     0
 41
2.5
 42
0.625
 43
3.75
 44
1.25
 73
     0
 74
     0
 77
     1
 78
     8
140
2.5
141
2.5
143
0.0393700787
147
0.625
171
     3
172
     1
178
     0
271
     2
272
     2
274
     3
278
    44
283
     0
284
     8
340
11
  0
ENDTAB
  0
TABLE
  2
BLOCK_RECORD
  5
1
330
0
100
AcDbSymbolTable
 70
     5
  0
BLOCK_RECORD
  5
1F
330
1
100
AcDbSymbolTableRecord
100
AcDbBlockTableRecord
  2
*Model_Space
340
22
  0
BLOCK_RECORD
  5
1B
330
1
100
AcDbSymbolTableRecord
100
AcDbBlockTableRecord
  2
*Paper_Space
340
1E
  0
BLOCK_RECORD
  5
23
330
1
100
AcDbSymbolTableRecord
100
AcDbBlockTableRecord
  2
*Paper_Space0
340
26
  0
BLOCK_RECORD
  5
8B
330
1
100
AcDbSymbolTableRecord
100
AcDbBlockTableRecord
  2
SW_CENTERMARKSYMBOL_0
340
0
102
{BLKREFS
331
96
102
}
  0
BLOCK_RECORD
  5
A9
330
1
100
AcDbSymbolTableRecord
100
AcDbBlockTableRecord
  2
SW_CENTERMARKSYMBOL_1
340
0
102
{BLKREFS
331
B4
102
}
  0
BLOCK_RECORD
  5
D9
330
1
100
AcDbSymbolTableRecord
100
AcDbBlockTableRecord
  2
SW_CENTERMARKSYMBOL_2
340
0
102
{BLKREFS
331
E4
102
}
  0
BLOCK_RECORD
  5
E5
330
1
100
AcDbSymbolTableRecord
100
AcDbBlockTableRecord
  2
SW_CENTERMARKSYMBOL_3
340
0
102
{BLKREFS
331
F0
102
}
  0
ENDTAB
  0
ENDSEC
  0
SECTION
  2
BLOCKS
  0
BLOCK
  5
20
330
1F
100
AcDbEntity
  8
0
100
AcDbBlockBegin
  2
*Model_Space
 70
     0
 10
0.0
 20
0.0
 30
0.0
  3
*Model_Space
  1

  0
ENDBLK
  5
21
330
1F
100
AcDbEntity
  8
0
100
AcDbBlockEnd
  0
BLOCK
  5
1C
330
1B
100
AcDbEntity
 67
     1
  8
0
100
AcDbBlockBegin
  2
*Paper_Space
 70
     0
 10
0.0
 20
0.0
 30
0.0
  3
*Paper_Space
  1

  0
ENDBLK
  5
1D
330
1B
100
AcDbEntity
 67
     1
  8
0
100
AcDbBlockEnd
  0
BLOCK
  5
24
330
23
100
AcDbEntity
  8
0
100
AcDbBlockBegin
  2
*Paper_Space0
 70
     0
 10
0.0
 20
0.0
 30
0.0
  3
*Paper_Space0
  1

  0
ENDBLK
  5
25
330
23
100
AcDbEntity
  8
0
100
AcDbBlockEnd
  0
BLOCK
  5
8C
330
8B
100
AcDbEntity
  8
0
100
AcDbBlockBegin
  2
SW_CENTERMARKSYMBOL_0
 70
     0
 10
0.0
 20
0.0
 30
0.0
  3
SW_CENTERMARKSYMBOL_0
  1

  0
LINE
  5
8E
330
8B
100
AcDbEntity
  8
FORMAT
 62
     0
100
AcDbLine
 10
0.0
 20
0.0
 30
0.0
 11
0.0
 21
2.5
 31
0.0
  0
LINE
  5
8F
330
8B
100
AcDbEntity
  8
FORMAT
 62
     0
100
AcDbLine
 10
0.0
 20
0.0
 30
0.0
 11
-2.5
 21
0.0
 31
0.0
  0
LINE
  5
90
330
8B
100
AcDbEntity
  8
FORMAT
 62
     0
100
AcDbLine
 10
0.0
 20
0.0
 30
0.0
 11
0.0
 21
-2.5
 31
0.0
  0
LINE
  5
91
330
8B
100
AcDbEntity
  8
FORMAT
 62
     0
100
AcDbLine
 10
0.0
 20
0.0
 30
0.0
 11
2.5
 21
0.0
 31
0.0
  0
LINE
  5
92
330
8B
100
AcDbEntity
  8
FORMAT
 62
     0
100
AcDbLine
 10
0.0
 20
5.0
 30
0.0
 11
0.0
 21
42.5
 31
0.0
  0
LINE
  5
93
330
8B
100
AcDbEntity
  8
FORMAT
 62
     0
100
AcDbLine
 10
-5.0
 20
0.0
 30
0.0
 11
-42.5
 21
0.0
 31
0.0
  0
LINE
  5
94
330
8B
100
AcDbEntity
  8
FORMAT
 62
     0
100
AcDbLine
 10
0.0
 20
-5.0
 30
0.0
 11
0.0
 21
-42.5
 31
0.0
  0
LINE
  5
95
330
8B
100
AcDbEntity
  8
FORMAT
 62
     0
100
AcDbLine
 10
5.0
 20
0.0
 30
0.0
 11
42.5
 21
0.0
 31
0.0
  0
ENDBLK
  5
8D
330
8B
100
AcDbEntity
  8
0
100
AcDbBlockEnd
  0
BLOCK
  5
AA
330
A9
100
AcDbEntity
  8
0
100
AcDbBlockBegin
  2
SW_CENTERMARKSYMBOL_1
 70
     0
 10
0.0
 20
0.0
 30
0.0
  3
SW_CENTERMARKSYMBOL_1
  1

  0
LINE
  5
AC
330
A9
100
AcDbEntity
  8
FORMAT
 62
     0
100
AcDbLine
 10
0.0
 20
0.0
 30
0.0
 11
0.0
 21
2.5
 31
0.0
  0
LINE
  5
AD
330
A9
100
AcDbEntity
  8
FORMAT
 62
     0
100
AcDbLine
 10
0.0
 20
0.0
 30
0.0
 11
-2.5
 21
0.0
 31
0.0
  0
LINE
  5
AE
330
A9
100
AcDbEntity
  8
FORMAT
 62
     0
100
AcDbLine
 10
0.0
 20
0.0
 30
0.0
 11
0.0
 21
-2.5
 31
0.0
  0
LINE
  5
AF
330
A9
100
AcDbEntity
  8
FORMAT
 62
     0
100
AcDbLine
 10
0.0
 20
0.0
 30
0.0
 11
2.5
 21
0.0
 31
0.0
  0
LINE
  5
B0
330
A9
100
AcDbEntity
  8
FORMAT
 62
     0
100
AcDbLine
 10
0.0
 20
5.0
 30
0.0
 11
0.0
 21
27.5
 31
0.0
  0
LINE
  5
B1
330
A9
100
AcDbEntity
  8
FORMAT
 62
     0
100
AcDbLine
 10
-5.0
 20
0.0
 30
0.0
 11
-27.5
 21
0.0
 31
0.0
  0
LINE
  5
B2
330
A9
100
AcDbEntity
  8
FORMAT
 62
     0
100
AcDbLine
 10
0.0
 20
-5.0
 30
0.0
 11
0.0
 21
-27.5
 31
0.0
  0
LINE
  5
B3
330
A9
100
AcDbEntity
  8
FORMAT
 62
     0
100
AcDbLine
 10
5.0
 20
0.0
 30
0.0
 11
27.5
 21
0.0
 31
0.0
  0
ENDBLK
  5
AB
330
A9
100
AcDbEntity
  8
0
100
AcDbBlockEnd
  0
BLOCK
  5
DA
330
D9
100
AcDbEntity
  8
0
100
AcDbBlockBegin
  2
SW_CENTERMARKSYMBOL_2
 70
     0
 10
0.0
 20
0.0
 30
0.0
  3
SW_CENTERMARKSYMBOL_2
  1

  0
LINE
  5
DC
330
D9
100
AcDbEntity
  8
FORMAT
 62
     0
100
AcDbLine
 10
0.0
 20
0.0
 30
0.0
 11
0.0
 21
2.5
 31
0.0
  0
LINE
  5
DD
330
D9
100
AcDbEntity
  8
FORMAT
 62
     0
100
AcDbLine
 10
0.0
 20
0.0
 30
0.0
 11
-2.5
 21
0.0
 31
0.0
  0
LINE
  5
DE
330
D9
100
AcDbEntity
  8
FORMAT
 62
     0
100
AcDbLine
 10
0.0
 20
0.0
 30
0.0
 11
0.0
 21
-2.5
 31
0.0
  0
LINE
  5
DF
330
D9
100
AcDbEntity
  8
FORMAT
 62
     0
100
AcDbLine
 10
0.0
 20
0.0
 30
0.0
 11
2.5
 21
0.0
 31
0.0
  0
LINE
  5
E0
330
D9
100
AcDbEntity
  8
FORMAT
 62
     0
100
AcDbLine
 10
0.0
 20
5.0
 30
0.0
 11
0.0
 21
9.5
 31
0.0
  0
LINE
  5
E1
330
D9
100
AcDbEntity
  8
FORMAT
 62
     0
100
AcDbLine
 10
-5.0
 20
0.0
 30
0.0
 11
-9.5
 21
0.0
 31
0.0
  0
LINE
  5
E2
330
D9
100
AcDbEntity
  8
FORMAT
 62
     0
100
AcDbLine
 10
0.0
 20
-5.0
 30
0.0
 11
0.0
 21
-9.5
 31
0.0
  0
LINE
  5
E3
330
D9
100
AcDbEntity
  8
FORMAT
 62
     0
100
AcDbLine
 10
5.0
 20
0.0
 30
0.0
 11
9.5
 21
0.0
 31
0.0
  0
ENDBLK
  5
DB
330
D9
100
AcDbEntity
  8
0
100
AcDbBlockEnd
  0
BLOCK
  5
E6
330
E5
100
AcDbEntity
  8
0
100
AcDbBlockBegin
  2
SW_CENTERMARKSYMBOL_3
 70
     0
 10
0.0
 20
0.0
 30
0.0
  3
SW_CENTERMARKSYMBOL_3
  1

  0
LINE
  5
E8
330
E5
100
AcDbEntity
  8
FORMAT
 62
     0
100
AcDbLine
 10
0.0
 20
0.0
 30
0.0
 11
0.0
 21
2.5
 31
0.0
  0
LINE
  5
E9
330
E5
100
AcDbEntity
  8
FORMAT
 62
     0
100
AcDbLine
 10
0.0
 20
0.0
 30
0.0
 11
-2.5
 21
0.0
 31
0.0
  0
LINE
  5
EA
330
E5
100
AcDbEntity
  8
FORMAT
 62
     0
100
AcDbLine
 10
0.0
 20
0.0
 30
0.0
 11
0.0
 21
-2.5
 31
0.0
  0
LINE
  5
EB
330
E5
100
AcDbEntity
  8
FORMAT
 62
     0
100
AcDbLine
 10
0.0
 20
0.0
 30
0.0
 11
2.5
 21
0.0
 31
0.0
  0
LINE
  5
EC
330
E5
100
AcDbEntity
  8
FORMAT
 62
     0
100
AcDbLine
 10
0.0
 20
5.0
 30
0.0
 11
0.0
 21
9.5
 31
0.0
  0
LINE
  5
ED
330
E5
100
AcDbEntity
  8
FORMAT
 62
     0
100
AcDbLine
 10
-5.0
 20
0.0
 30
0.0
 11
-9.5
 21
0.0
 31
0.0
  0
LINE
  5
EE
330
E5
100
AcDbEntity
  8
FORMAT
 62
     0
100
AcDbLine
 10
0.0
 20
-5.0
 30
0.0
 11
0.0
 21
-9.5
 31
0.0
  0
LINE
  5
EF
330
E5
100
AcDbEntity
  8
FORMAT
 62
     0
100
AcDbLine
 10
5.0
 20
0.0
 30
0.0
 11
9.5
 21
0.0
 31
0.0
  0
ENDBLK
  5
E7
330
E5
100
AcDbEntity
  8
0
100
AcDbBlockEnd
  0
ENDSEC
  0
SECTION
  2
ENTITIES
  0
LINE
  5
83
330
1F
100
AcDbEntity
  8
0
  6
Continuous
 62
     7
370
    25
100
AcDbLine
 10
126.1708209135
 20
139.1881478222
 30
0.0
 11
126.1708209135
 21
170.3012392902
 31
0.0
  0
LINE
  5
84
330
1F
100
AcDbEntity
  8
0
  6
Continuous
 62
     7
370
    25
100
AcDbLine
 10
112.1708209135
 20
170.3012392902
 30
0.0
 11
112.1708209135
 21
139.1852395583
 31
0.0
  0
LINE
  5
85
330
1F
100
AcDbEntity
  8
0
  6
Continuous
 62
     7
370
    25
100
AcDbLine
 10
150.4297910039
 20
74.8012392902
 30
0.0
 11
224.1708209135
 21
74.8012392902
 31
0.0
  0
LINE
  5
86
330
1F
100
AcDbEntity
  8
0
  6
Continuous
 62
     7
370
    25
100
AcDbLine
 10
224.1708209135
 20
124.8012392902
 30
0.0
 11
150.4106318615
 21
124.8012392902
 31
0.0
  0
CIRCLE
  5
87
330
1F
100
AcDbEntity
  8
0
  6
Continuous
 62
     7
370
    25
100
AcDbCircle
 10
119.1708209135
 20
99.8012392902
 30
0.0
 40
31.5
  0
CIRCLE
  5
88
330
1F
100
AcDbEntity
  8
0
  6
Continuous
 62
     7
370
    25
100
AcDbCircle
 10
119.1708209135
 20
99.8012392902
 30
0.0
 40
40.0
  0
LINE
  5
89
330
1F
100
AcDbEntity
  8
0
  6
Continuous
 62
     7
370
    25
100
AcDbLine
 10
126.1708209135
 20
170.3012392902
 30
0.0
 11
112.1708209135
 21
170.3012392902
 31
0.0
  0
LINE
  5
8A
330
1F
100
AcDbEntity
  8
0
  6
Continuous
 62
     7
370
    25
100
AcDbLine
 10
224.1708209135
 20
124.8012392902
 30
0.0
 11
224.1708209135
 21
74.8012392902
 31
0.0
  0
INSERT
  5
96
330
1F
100
AcDbEntity
  8
FORMAT
 62
     7
100
AcDbBlockReference
  2
SW_CENTERMARKSYMBOL_0
 10
119.1708209135
 20
99.8012392902
 30
0.0
  0
LINE
  5
97
330
1F
100
AcDbEntity
  8
0
  6
Continuous
 62
     7
370
    25
100
AcDbLine
 10
-179.9377518249
 20
139.8012392902
 30
0.0
 11
-180.9565867743
 21
139.8012392902
 31
0.0
  0
LINE
  5
98
330
1F
100
AcDbEntity
  8
0
  6
Continuous
 62
     7
370
    25
100
AcDbLine
 10
-31.9377518249
 20
139.8012392902
 30
0.0
 11
-165.9565867743
 21
139.8012392902
 31
0.0
  0
LINE
  5
99
330
1F
100
AcDbEntity
  8
0
  6
Continuous
 62
     7
370
    25
100
AcDbLine
 10
-16.9565867743
 20
139.8012392902
 30
0.0
 11
-17.9565867743
 21
139.8012392902
 31
0.0
  0
LINE
  5
9A
330
1F
100
AcDbEntity
  8
0
  6
Continuous
 62
     7
370
    25
100
AcDbLine
 10
-180.9565867743
 20
59.8012392902
 30
0.0
 11
-16.9565867743
 21
59.8012392902
 31
0.0
  0
LINE
  5
9B
330
1F
100
AcDbEntity
  8
0
  6
Continuous
 62
     7
370
    25
100
AcDbLine
 10
-17.9565867743
 20
139.8012392902
 30
0.0
 11
-17.9565867743
 21
170.3012392902
 31
0.0
  0
LINE
  5
9C
330
1F
100
AcDbEntity
  8
0
  6
Continuous
 62
     7
370
    25
100
AcDbLine
 10
-31.9565867743
 20
170.3012392902
 30
0.0
 11
-31.9565867743
 21
139.7979565304
 31
0.0
  0
LINE
  5
9D
330
1F
100
AcDbEntity
  8
0
  6
Continuous
 62
     7
370
    25
100
AcDbLine
 10
-165.9565867743
 20
139.8012392902
 30
0.0
 11
-165.9565867743
 21
170.3012392902
 31
0.0
  0
LINE
  5
9E
330
1F
100
AcDbEntity
  8
0
  6
Continuous
 62
     7
370
    25
100
AcDbLine
 10
-179.9565867743
 20
170.3012392902
 30
0.0
 11
-179.9565867743
 21
139.7979565304
 31
0.0
  0
CIRCLE
  5
9F
330
1F
100
AcDbEntity
  8
0
  6
Continuous
 62
     7
370
    25
100
AcDbCircle
 10
-98.9565867743
 20
99.8012392902
 30
0.0
 40
20.40000000000002
  0
CIRCLE
  5
A0
330
1F
100
AcDbEntity
  8
0
  6
Continuous
 62
     7
370
    25
100
AcDbCircle
 10
-98.9565867743
 20
99.8012392902
 30
0.0
 40
25.00000000000001
  0
LINE
  5
A1
330
1F
100
AcDbEntity
  8
0
  6
Continuous
 62
     7
370
    25
100
AcDbLine
 10
-180.9565867743
 20
99.8012392902
 30
0.0
 11
-180.9565867743
 21
139.8012392902
 31
0.0
  0
LINE
  5
A2
330
1F
100
AcDbEntity
  8
0
  6
Continuous
 62
     7
370
    25
100
AcDbLine
 10
-180.9565867743
 20
59.8012392902
 30
0.0
 11
-180.9565867743
 21
99.8012392902
 31
0.0
  0
LINE
  5
A3
330
1F
100
AcDbEntity
  8
0
  6
Continuous
 62
     7
370
    25
100
AcDbLine
 10
-16.9565867743
 20
99.8012392902
 30
0.0
 11
-16.9565867743
 21
139.8012392902
 31
0.0
  0
LINE
  5
A4
330
1F
100
AcDbEntity
  8
0
  6
Continuous
 62
     7
370
    25
100
AcDbLine
 10
-16.9565867743
 20
59.8012392902
 30
0.0
 11
-16.9565867743
 21
99.8012392902
 31
0.0
  0
SPLINE
  5
A5
330
1F
100
AcDbEntity
  8
0
  6
Continuous
 62
     7
370
    25
100
AcDbSpline
210
0.0
220
0.0
230
1.0
 70
     8
 71
     3
 72
    26
 73
    22
 74
     0
 42
0.00000001
 43
0.00000001
 40
0.0
 40
0.0
 40
0.0
 40
0.0
 40
0.05237446859372
 40
0.1062818262333994
 40
0.1586523694408184
 40
0.2125152249020938
 40
0.2653744664375877
 40
0.3197450442193736
 40
0.3729395875070164
 40
0.4277066401178663
 40
0.4803558846474332
 40
0.5345675023679165
 40
0.586639390978617
 40
0.6402072654921822
 40
0.692569601904707
 40
0.7464103371621765
 40
0.7994741393026453
 40
0.854072288161584
 40
0.9071646812192989
 40
0.9618359470163516
 40
1.0
 40
1.0
 40
1.0
 40
1.0
 10
-165.9565867743412
 20
139.8012392901928
 30
0.0
 10
-165.9749703601866
 20
139.7980012585951
 30
0.0
 10
-166.0122755802458
 20
139.7914304251176
 30
0.0
 10
-166.3121512256327
 20
139.7399450987834
 30
0.0
 10
-166.7858217258477
 20
139.6632372718625
 30
0.0
 10
-167.4304945262208
 20
139.5676166897178
 30
0.0
 10
-168.2368761666636
 20
139.4626251372396
 30
0.0
 10
-169.1734607435374
 20
139.3610852238452
 30
0.0
 10
-170.2298887351305
 20
139.2731917713173
 30
0.0
 10
-171.3547630503312
 20
139.2108791655983
 30
0.0
 10
-172.533083157071
 20
139.1803541873025
 30
0.0
 10
-173.7045911803275
 20
139.1852953771897
 30
0.0
 10
-174.8605199846006
 20
139.2246354769966
 30
0.0
 10
-175.9499778522598
 20
139.2928870331981
 30
0.0
 10
-176.966707032418
 20
139.3837524279408
 30
0.0
 10
-177.8689654845026
 20
139.4862485244336
 30
0.0
 10
-178.6445439499775
 20
139.5906011187997
 30
0.0
 10
-179.2582421580426
 20
139.6838691367479
 30
0.0
 10
-179.691089598587
 20
139.7551528546137
 30
0.0
 10
-179.9298073645418
 20
139.7965348782047
 30
0.0
 10
-179.9354373649135
 20
139.7975391555059
 30
0.0
 10
-179.9377518249198
 20
139.7979520079917
 30
0.0
  0
SPLINE
  5
A6
330
1F
100
AcDbEntity
  8
0
  6
Continuous
 62
     7
370
    25
100
AcDbSpline
210
0.0
220
0.0
230
1.0
 70
     8
 71
     3
 72
    26
 73
    22
 74
     0
 42
0.00000001
 43
0.00000001
 40
0.0
 40
0.0
 40
0.0
 40
0.0
 40
0.05237446859372
 40
0.1062818262333993
 40
0.1586523694408183
 40
0.2125152249020935
 40
0.2653744664375874
 40
0.3197450442193733
 40
0.3729395875070162
 40
0.427706640117866
 40
0.4803558846474328
 40
0.5345675023679161
 40
0.5866393909786165
 40
0.6402072654921817
 40
0.6925696019047064
 40
0.746410337162176
 40
0.7994741393026448
 40
0.8540722881615833
 40
0.9071646812192984
 40
0.9618359470163511
 40
1.0
 40
1.0
 40
1.0
 40
1.0
 10
-17.95658677434114
 20
139.8012392901928
 30
0.0
 10
-17.97497036018658
 20
139.7980012585951
 30
0.0
 10
-18.01227558024576
 20
139.7914304251176
 30
0.0
 10
-18.31215122563271
 20
139.7399450987834
 30
0.0
 10
-18.78582172584764
 20
139.6632372718625
 30
0.0
 10
-19.43049452622071
 20
139.5676166897178
 30
0.0
 10
-20.23687616666357
 20
139.4626251372396
 30
0.0
 10
-21.17346074353738
 20
139.3610852238451
 30
0.0
 10
-22.22988873513049
 20
139.2731917713173
 30
0.0
 10
-23.35476305033112
 20
139.2108791655983
 30
0.0
 10
-24.53308315707103
 20
139.1803541873025
 30
0.0
 10
-25.70459118032745
 20
139.1852953771897
 30
0.0
 10
-26.86051998460053
 20
139.2246354769966
 30
0.0
 10
-27.94997785225978
 20
139.2928870331981
 30
0.0
 10
-28.96670703241798
 20
139.3837524279408
 30
0.0
 10
-29.86896548450268
 20
139.4862485244336
 30
0.0
 10
-30.64454394997744
 20
139.5906011187997
 30
0.0
 10
-31.25824215804257
 20
139.6838691367479
 30
0.0
 10
-31.69108959858696
 20
139.7551528546137
 30
0.0
 10
-31.92980736454173
 20
139.7965348782047
 30
0.0
 10
-31.9354373649135
 20
139.7975391555059
 30
0.0
 10
-31.93775182491976
 20
139.7979520079917
 30
0.0
  0
LINE
  5
A7
330
1F
100
AcDbEntity
  8
0
  6
Continuous
 62
     7
370
    25
100
AcDbLine
 10
-17.9565867743
 20
170.3012392902
 30
0.0
 11
-31.9565867743
 21
170.3012392902
 31
0.0
  0
LINE
  5
A8
330
1F
100
AcDbEntity
  8
0
  6
Continuous
 62
     7
370
    25
100
AcDbLine
 10
-165.9565867743
 20
170.3012392902
 30
0.0
 11
-179.9565867743
 21
170.3012392902
 31
0.0
  0
INSERT
  5
B4
330
1F
100
AcDbEntity
  8
FORMAT
 62
     7
100
AcDbBlockReference
  2
SW_CENTERMARKSYMBOL_1
 10
-98.9565867743
 20
99.8012392902
 30
0.0
  0
LINE
  5
B5
330
1F
100
AcDbEntity
  8
0
  6
Continuous
 62
     7
370
    25
100
AcDbLine
 10
159.1708209135
 20
308.8478677237
 30
0.0
 11
159.1708209135
 21
365.8478677237
 31
0.0
  0
LINE
  5
B6
330
1F
100
AcDbEntity
  8
0
  6
Continuous
 62
     7
370
    25
100
AcDbLine
 10
159.1708209135
 20
201.8478677237
 30
0.0
 11
159.1708209135
 21
258.9111797826
 31
0.0
  0
LINE
  5
B7
330
1F
100
AcDbEntity
  8
0
  6
Continuous
 62
     7
370
    25
100
AcDbLine
 10
79.1708209135
 20
365.8478677237
 30
0.0
 11
79.1708209135
 21
201.8478677237
 31
0.0
  0
LINE
  5
B8
330
1F
100
AcDbEntity
  8
0
  6
Continuous
 62
     7
370
    25
100
AcDbLine
 10
159.1313013787
 20
258.8478677237
 30
0.0
 11
224.1708209135
 21
258.8478677237
 31
0.0
  0
LINE
  5
B9
330
1F
100
AcDbEntity
  8
0
  6
Continuous
 62
     7
370
    25
100
AcDbLine
 10
224.1708209135
 20
308.8478677237
 30
0.0
 11
159.1708209135
 21
308.8478677237
 31
0.0
  0
SPLINE
  5
BA
330
1F
100
AcDbEntity
  8
0
  6
Continuous
 62
     7
370
    25
100
AcDbSpline
210
0.0
220
0.0
230
1.0
 70
     8
 71
     3
 72
    36
 73
    32
 74
     0
 42
0.00000001
 43
0.00000001
 40
0.0
 40
0.0
 40
0.0
 40
0.0
 40
0.0232255065896264
 40
0.0464515719227829
 40
0.0704192945089916
 40
0.0943886437845845
 40
0.1407649397474647
 40
0.188308050038387
 40
0.2384823446245427
 40
0.2897907429062989
 40
0.318163915461637
 40
0.346534655713819
 40
0.375828897176689
 40
0.4051166685306531
 40
0.4471378812748234
 40
0.4903191471726493
 40
0.5323726441541053
 40
0.5757187091931005
 40
0.6170357342147142
 40
0.659215445551805
 40
0.708272855820315
 40
0.7583785313783497
 40
0.7868404345032985
 40
0.815300195314566
 40
0.8446802093848435
 40
0.874056144947416
 40
0.900857239176476
 40
0.927655342042606
 40
0.9555300548594501
 40
0.983402676728551
 40
1.0
 40
1.0
 40
1.0
 40
1.0
 10
159.1708209134615
 20
308.847867723715
 30
0.0
 10
159.1622317178066
 20
308.8341702965672
 30
0.0
 10
159.1450531198637
 20
308.8067751127481
 30
0.0
 10
159.0075054734761
 20
308.5860011700302
 30
0.0
 10
158.7869265577625
 20
308.2298078864977
 30
0.0
 10
158.3832100945557
 20
307.5701923896646
 30
0.0
 10
157.692961545002
 20
306.4202158257983
 30
0.0
 10
156.6164878825671
 20
304.5411958481563
 30
0.0
 10
155.3396429457997
 20
302.1486208403961
 30
0.0
 10
154.1672563725149
 20
299.7025215135689
 30
0.0
 10
153.2187365503142
 20
297.4565106714666
 30
0.0
 10
152.5007456073902
 20
295.5533152336026
 30
0.0
 10
151.8385547376033
 20
293.5183795106325
 30
0.0
 10
151.1787985403907
 20
291.0452491111017
 30
0.0
 10
150.6222266874651
 20
288.0832300289696
 30
0.0
 10
150.3422696049572
 20
284.6649343047229
 30
0.0
 10
150.4462982228502
 20
281.1860205924635
 30
0.0
 10
150.9144625550009
 20
277.8383840424574
 30
0.0
 10
151.6776105707697
 20
274.653443529106
 30
0.0
 10
152.690863785043
 20
271.5451298146818
 30
0.0
 10
153.9201696928917
 20
268.5202583610259
 30
0.0
 10
155.0722203220726
 20
266.1003403911583
 30
0.0
 10
156.002938374967
 20
264.301601705554
 30
0.0
 10
156.7151071231006
 20
262.9930543281791
 30
0.0
 10
157.375214017948
 20
261.8286171831768
 30
0.0
 10
157.9464674226946
 20
260.8542225955121
 30
0.0
 10
158.4106523363937
 20
260.0809511956745
 30
0.0
 10
158.7753639254116
 20
259.4846682342316
 30
0.0
 10
159.0228003430143
 20
259.0847217449033
 30
0.0
 10
159.1731532318131
 20
258.8441288165029
 30
0.0
 10
159.1426689387445
 20
258.8929561647931
 30
0.0
 10
159.1312914192724
 20
258.9111797825984
 30
0.0
  0
LINE
  5
BB
330
1F
100
AcDbEntity
  8
0
  6
Continuous
 62
     7
370
    25
100
AcDbLine
 10
79.1708209135
 20
365.8478677237
 30
0.0
 11
159.1708209135
 21
365.8478677237
 31
0.0
  0
LINE
  5
BC
330
1F
100
AcDbEntity
  8
0
  6
Continuous
 62
     7
370
    25
100
AcDbLine
 10
79.1708209135
 20
201.8478677237
 30
0.0
 11
159.1708209135
 21
201.8478677237
 31
0.0
  0
LINE
  5
BD
330
1F
100
AcDbEntity
  8
0
  6
Continuous
 62
     7
370
    25
100
AcDbLine
 10
224.1708209135
 20
308.8478677237
 30
0.0
 11
224.1708209135
 21
258.8478677237
 31
0.0
  0
LINE
  5
BE
330
1F
100
AcDbEntity
  8
0
  6
Continuous
 62
     7
370
    25
100
AcDbLine
 10
281.370139713
 20
59.8012392902
 30
0.0
 11
445.370139713
 21
59.8012392902
 31
0.0
  0
LINE
  5
BF
330
1F
100
AcDbEntity
  8
0
  6
Continuous
 62
     7
370
    25
100
AcDbLine
 10
282.370139713
 20
139.8012392902
 30
0.0
 11
281.370139713
 21
139.8012392902
 31
0.0
  0
LINE
  5
C0
330
1F
100
AcDbEntity
  8
0
  6
Continuous
 62
     7
370
    25
100
AcDbLine
 10
430.370139713
 20
139.8012392902
 30
0.0
 11
296.3513047636
 21
139.8012392902
 31
0.0
  0
LINE
  5
C1
330
1F
100
AcDbEntity
  8
0
  6
Continuous
 62
     7
370
    25
100
AcDbLine
 10
445.370139713
 20
139.8012392902
 30
0.0
 11
444.3513047636
 21
139.8012392902
 31
0.0
  0
LINE
  5
C2
330
1F
100
AcDbEntity
  8
0
  6
Continuous
 62
     7
370
    25
100
AcDbLine
 10
296.370139713
 20
139.7979565304
 30
0.0
 11
296.370139713
 21
170.3012392902
 31
0.0
  0
LINE
  5
C3
330
1F
100
AcDbEntity
  8
0
  6
Continuous
 62
     7
370
    25
100
AcDbLine
 10
282.370139713
 20
170.3012392902
 30
0.0
 11
282.370139713
 21
139.8012392902
 31
0.0
  0
LINE
  5
C4
330
1F
100
AcDbEntity
  8
0
  6
Continuous
 62
     7
370
    25
100
AcDbLine
 10
444.370139713
 20
139.7979565304
 30
0.0
 11
444.370139713
 21
170.3012392902
 31
0.0
  0
LINE
  5
C5
330
1F
100
AcDbEntity
  8
0
  6
Continuous
 62
     7
370
    25
100
AcDbLine
 10
430.370139713
 20
170.3012392902
 30
0.0
 11
430.370139713
 21
139.8012392902
 31
0.0
  0
LINE
  5
C6
330
1F
100
AcDbEntity
  8
0
  6
Continuous
 62
     7
370
    25
100
AcDbLine
 10
445.370139713
 20
139.8012392902
 30
0.0
 11
445.370139713
 21
59.8012392902
 31
0.0
  0
LINE
  5
C7
330
1F
100
AcDbEntity
  8
0
  6
Continuous
 62
     7
370
    25
100
AcDbLine
 10
281.370139713
 20
139.8012392902
 30
0.0
 11
281.370139713
 21
59.8012392902
 31
0.0
  0
SPLINE
  5
C8
330
1F
100
AcDbEntity
  8
0
  6
Continuous
 62
     7
370
    25
100
AcDbSpline
210
0.0
220
0.0
230
1.0
 70
     8
 71
     3
 72
    26
 73
    22
 74
     0
 42
0.00000001
 43
0.00000001
 40
0.0
 40
0.0
 40
0.0
 40
0.0
 40
0.014248464427562
 40
0.0682047854705337
 40
0.1202918722527087
 40
0.1738623030885345
 40
0.2264594863351623
 40
0.2805475599452508
 40
0.3337266108351132
 40
0.3884598919559001
 40
0.4413831263968191
 40
0.4958835309922001
 40
0.5480923534488614
 40
0.6018209588757727
 40
0.6539787920249518
 40
0.7076114857205099
 40
0.760451040223532
 40
0.8147999241716329
 40
0.8680009186374211
 40
0.9227729532218939
 40
1.0
 40
1.0
 40
1.0
 40
1.0
 10
444.351304763626
 20
139.7979520079917
 30
0.0
 10
444.3568537831576
 20
139.7989203570906
 30
0.0
 10
444.3834159217409
 20
139.8035556665928
 30
0.0
 10
444.235123224868
 20
139.7775794057332
 30
0.0
 10
443.9035262342183
 20
139.7215213099052
 30
0.0
 10
443.381225621024
 20
139.6385659745719
 30
0.0
 10
442.689804179336
 20
139.5392303351472
 30
0.0
 10
441.8507267775888
 20
139.4345886660958
 30
0.0
 10
440.8733083863448
 20
139.335036710323
 30
0.0
 10
439.8015812039303
 20
139.2537104390865
 30
0.0
 10
438.6504362274496
 20
139.1990149140741
 30
0.0
 10
437.479393262611
 20
139.1782217557228
 30
0.0
 10
436.3000538310463
 20
139.1928338483972
 30
0.0
 10
435.1678021704773
 20
139.2403153004269
 30
0.0
 10
434.0884808538236
 20
139.3159946718911
 30
0.0
 10
433.106170456085
 20
139.4105306447976
 30
0.0
 10
432.2308654718547
 20
139.5151951015163
 30
0.0
 10
431.5005601735867
 20
139.617276129733
 30
0.0
 10
430.9332147186964
 20
139.7055772762973
 30
0.0
 10
430.4764618327015
 20
139.7823456487926
 30
0.0
 10
430.409384062599
 20
139.7942654951836
 30
0.0
 10
430.3701397130474
 20
139.8012392901928
 30
0.0
  0
SPLINE
  5
C9
330
1F
100
AcDbEntity
  8
0
  6
Continuous
 62
     7
370
    25
100
AcDbSpline
210
0.0
220
0.0
230
1.0
 70
     8
 71
     3
 72
    26
 73
    22
 74
     0
 42
0.00000001
 43
0.00000001
 40
0.0
 40
0.0
 40
0.0
 40
0.0
 40
0.0142484644275613
 40
0.068204785470533
 40
0.120291872252708
 40
0.1738623030885338
 40
0.2264594863351615
 40
0.2805475599452501
 40
0.3337266108351126
 40
0.3884598919558995
 40
0.4413831263968185
 40
0.4958835309921996
 40
0.5480923534488609
 40
0.6018209588757722
 40
0.6539787920249513
 40
0.7076114857205104
 40
0.7604510402235316
 40
0.8147999241716327
 40
0.8680009186374209
 40
0.9227729532218939
 40
1.0
 40
1.0
 40
1.0
 40
1.0
 10
296.351304763626
 20
139.7979520079917
 30
0.0
 10
296.3568537831576
 20
139.7989203570906
 30
0.0
 10
296.3834159217409
 20
139.8035556665928
 30
0.0
 10
296.235123224868
 20
139.7775794057331
 30
0.0
 10
295.9035262342182
 20
139.7215213099052
 30
0.0
 10
295.381225621024
 20
139.6385659745718
 30
0.0
 10
294.689804179336
 20
139.5392303351472
 30
0.0
 10
293.8507267775887
 20
139.4345886660958
 30
0.0
 10
292.8733083863447
 20
139.335036710323
 30
0.0
 10
291.8015812039303
 20
139.2537104390865
 30
0.0
 10
290.6504362274496
 20
139.1990149140741
 30
0.0
 10
289.479393262611
 20
139.1782217557228
 30
0.0
 10
288.3000538310463
 20
139.1928338483972
 30
0.0
 10
287.1678021704773
 20
139.2403153004269
 30
0.0
 10
286.0884808538236
 20
139.3159946718911
 30
0.0
 10
285.106170456085
 20
139.4105306447976
 30
0.0
 10
284.2308654718547
 20
139.5151951015163
 30
0.0
 10
283.5005601735867
 20
139.617276129733
 30
0.0
 10
282.9332147186964
 20
139.7055772762973
 30
0.0
 10
282.4764618327015
 20
139.7823456487926
 30
0.0
 10
282.409384062599
 20
139.7942654951836
 30
0.0
 10
282.3701397130474
 20
139.8012392901928
 30
0.0
  0
LINE
  5
CA
330
1F
100
AcDbEntity
  8
0
  6
Continuous
 62
     7
370
    25
100
AcDbLine
 10
296.370139713
 20
170.3012392902
 30
0.0
 11
282.370139713
 21
170.3012392902
 31
0.0
  0
LINE
  5
CB
330
1F
100
AcDbEntity
  8
0
  6
Continuous
 62
     7
370
    25
100
AcDbLine
 10
444.370139713
 20
170.3012392902
 30
0.0
 11
430.370139713
 21
170.3012392902
 31
0.0
  0
LINE
  5
CC
330
1F
100
AcDbEntity
  8
0
  6
Continuous
 62
     7
370
    25
100
AcDbLine
 10
79.1708209135
 20
0.4657085733
 30
0.0
 11
79.1708209135
 21
-163.5342914267
 31
0.0
  0
LINE
  5
CD
330
1F
100
AcDbEntity
  8
0
  6
Continuous
 62
     7
370
    25
100
AcDbLine
 10
159.1708209135
 20
-56.5976034856
 30
0.0
 11
159.1708209135
 21
0.4657085733
 31
0.0
  0
LINE
  5
CE
330
1F
100
AcDbEntity
  8
0
  6
Continuous
 62
     7
370
    25
100
AcDbLine
 10
159.1708209135
 20
-163.5342914267
 30
0.0
 11
159.1708209135
 21
-106.5342914267
 31
0.0
  0
LINE
  5
CF
330
1F
100
AcDbEntity
  8
0
  6
Continuous
 62
     7
370
    25
100
AcDbLine
 10
159.1708209135
 20
-106.5342914267
 30
0.0
 11
224.1708209135
 21
-106.5342914267
 31
0.0
  0
LINE
  5
D0
330
1F
100
AcDbEntity
  8
0
  6
Continuous
 62
     7
370
    25
100
AcDbLine
 10
224.1708209135
 20
-56.5342914267
 30
0.0
 11
159.1708209135
 21
-56.5342914267
 31
0.0
  0
CIRCLE
  5
D1
330
1F
100
AcDbEntity
  8
0
  6
Continuous
 62
     7
370
    25
100
AcDbCircle
 10
119.1708209135
 20
-7.5342914267
 30
0.0
 40
7.00000000000002
  0
CIRCLE
  5
D2
330
1F
100
AcDbEntity
  8
0
  6
Continuous
 62
     7
370
    25
100
AcDbCircle
 10
119.1708209135
 20
-7.5342914267
 30
0.0
 40
5.000000000000004
  0
CIRCLE
  5
D3
330
1F
100
AcDbEntity
  8
0
  6
Continuous
 62
     7
370
    25
100
AcDbCircle
 10
119.1708209135
 20
-155.5342914267
 30
0.0
 40
5.0
  0
CIRCLE
  5
D4
330
1F
100
AcDbEntity
  8
0
  6
Continuous
 62
     7
370
    25
100
AcDbCircle
 10
119.1708209135
 20
-155.5342914267
 30
0.0
 40
7.0
  0
LWPOLYLINE
  5
D5
330
1F
100
AcDbEntity
  8
0
  6
Continuous
 62
     7
370
    25
100
AcDbPolyline
 90
       32
 70
   128
 43
0.0
 10
159.1312914193
 20
-56.5976034856
 10
159.101415244
 20
-56.6454914639
 10
158.9451432862
 20
-56.8969296627
 10
158.7037367704
 20
-57.2886436491
 10
158.0442455626
 20
-58.379526389
 10
157.1342768497
 20
-59.9420709152
 10
155.9640699376
 20
-62.0729663497
 10
154.6553314983
 20
-64.6775274595
 10
153.9124180171
 20
-66.303371858
 10
153.1855755034
 20
-68.0434230406
 10
152.4766106223
 20
-69.9466406601
 10
151.8314854053
 20
-71.9572874563
 10
151.0251712495
 20
-75.2335267643
 10
150.7250071386
 20
-76.9895551266
 10
150.516897735
 20
-78.7817413182
 10
150.4059573904
 20
-82.3303760518
 10
150.5065282955
 20
-84.1631193141
 10
150.7097857596
 20
-85.9734696803
 10
151.3022179893
 20
-89.1123306219
 10
152.1484546529
 20
-92.1420398708
 10
153.2869131123
 20
-95.2786628899
 10
154.5468034588
 20
-98.1613820035
 10
155.2894597345
 20
-99.6880495289
 10
156.0127599005
 20
-101.0875128575
 10
156.717786153
 20
-102.3856182736
 10
157.3649659239
 20
-103.5295798558
 10
157.918837152
 20
-104.4779686144
 10
158.3868477036
 20
-105.2597367799
 10
158.7671172351
 20
-105.8832653989
 10
159.0270366347
 20
-106.3035855551
 10
159.1708209135
 20
-106.5342914267
 10
159.1708209135
 20
-106.5342914267
  0
LINE
  5
D6
330
1F
100
AcDbEntity
  8
0
  6
Continuous
 62
     7
370
    25
100
AcDbLine
 10
159.1708209135
 20
-163.5342914267
 30
0.0
 11
79.1708209135
 21
-163.5342914267
 31
0.0
  0
LINE
  5
D7
330
1F
100
AcDbEntity
  8
0
  6
Continuous
 62
     7
370
    25
100
AcDbLine
 10
159.1708209135
 20
0.4657085733
 30
0.0
 11
79.1708209135
 21
0.4657085733
 31
0.0
  0
LINE
  5
D8
330
1F
100
AcDbEntity
  8
0
  6
Continuous
 62
     7
370
    25
100
AcDbLine
 10
224.1708209135
 20
-56.5342914267
 30
0.0
 11
224.1708209135
 21
-106.5342914267
 31
0.0
  0
INSERT
  5
E4
330
1F
100
AcDbEntity
  8
FORMAT
 62
     7
100
AcDbBlockReference
  2
SW_CENTERMARKSYMBOL_2
 10
119.1708209135
 20
-155.5342914267
 30
0.0
  0
INSERT
  5
F0
330
1F
100
AcDbEntity
  8
FORMAT
 62
     7
100
AcDbBlockReference
  2
SW_CENTERMARKSYMBOL_3
 10
119.1708209135
 20
-7.5342914267
 30
0.0
  0
LINE
  5
F1
330
1F
100
AcDbEntity
  8
0
  6
Continuous
 62
     7
370
    25
100
AcDbLine
 10
421.3381429862
 20
-81.7233250237
 30
0.0
 11
408.3622950841
 21
-74.232527476
 31
0.0
  0
LINE
  5
F2
330
1F
100
AcDbEntity
  8
0
  6
Continuous
 62
     7
370
    25
100
AcDbLine
 10
358.3582313857
 20
-45.3657959485
 30
0.0
 11
305.3726308716
 21
-14.7778598543
 31
0.0
  0
LINE
  5
F3
330
1F
100
AcDbEntity
  8
0
  6
Continuous
 62
     7
370
    25
100
AcDbLine
 10
265.3758815661
 20
-84.0617688447
 30
0.0
 11
381.3413936807
 21
-151.0072340142
 31
0.0
  0
LINE
  5
F4
330
1F
100
AcDbEntity
  8
0
  6
Continuous
 62
     7
370
    25
100
AcDbLine
 10
381.2268511991
 20
-89.8974857928
 30
0.0
 11
430.1022084587
 21
-61.682342623
 31
0.0
  0
LINE
  5
F5
330
1F
100
AcDbEntity
  8
0
  6
Continuous
 62
     7
370
    25
100
AcDbLine
 10
405.1042401428
 20
-18.379899504
 30
0.0
 11
356.2269594688
 21
-46.5961530372
 31
0.0
  0
LINE
  5
F6
330
1F
100
AcDbEntity
  8
0
  6
Continuous
 62
     7
370
    25
100
AcDbLine
 10
298.0311104683
 20
-12.9041884569
 30
0.0
 11
298.0311104683
 21
4.8806804412
 31
0.0
  0
LINE
  5
F7
330
1F
100
AcDbEntity
  8
0
  6
Continuous
 62
     7
370
    25
100
AcDbLine
 10
284.0311104683
 20
4.8806804412
 30
0.0
 11
284.0311104683
 21
-17.5704110139
 31
0.0
  0
SPLINE
  5
F8
330
1F
100
AcDbEntity
  8
0
  6
Continuous
 62
     7
370
    25
100
AcDbSpline
210
0.0
220
0.0
230
1.0
 70
     8
 71
     3
 72
    25
 73
    21
 74
     0
 42
0.00000001
 43
0.00000001
 40
0.0
 40
0.0
 40
0.0
 40
0.0
 40
0.0418488097716824
 40
0.0838506018971474
 40
0.1257154813900776
 40
0.1882606541867848
 40
0.250842532336075
 40
0.318437666318117
 40
0.3860489435574439
 40
0.4372188069731564
 40
0.4885483715753029
 40
0.5396547691472294
 40
0.5964293496407383
 40
0.6531646810004768
 40
0.7100355155629634
 40
0.7669347399667191
 40
0.8225376215817911
 40
0.8781775872694256
 40
0.9442294911955074
 40
1.0
 40
1.0
 40
1.0
 40
1.0
 10
353.9636139939482
 20
-56.35928329997058
 30
0.0
 10
353.9702964749077
 20
-57.06800111381624
 30
0.0
 10
353.9836858652794
 20
-58.48802752771917
 30
0.0
 10
354.0907357923784
 20
-60.80107879860204
 30
0.0
 10
354.2901079062099
 20
-63.59975714009799
 30
0.0
 10
354.6374460374983
 20
-66.91566419514213
 30
0.0
 10
355.2078751595182
 20
-70.78200862712046
 30
0.0
 10
355.9948899288046
 20
-74.69973549085482
 30
0.0
 10
356.9664582227134
 20
-78.25359839396293
 30
0.0
 10
358.0768215755468
 20
-81.31567973348912
 30
0.0
 10
359.2827860036322
 20
-83.89916792461852
 30
0.0
 10
360.7722986958261
 20
-86.33677340636098
 30
0.0
 10
362.6154901660883
 20
-88.51352376956766
 30
0.0
 10
364.8416423997322
 20
-90.31987626216596
 30
0.0
 10
367.3712332579279
 20
-91.57410139744096
 30
0.0
 10
370.0742446427947
 20
-92.27115944682983
 30
0.0
 10
372.8550160570751
 20
-92.42089952562776
 30
0.0
 10
375.7746105154197
 20
-92.06965390097673
 30
0.0
 10
378.630843449376
 20
-91.26287978736897
 30
0.0
 10
380.3993315242377
 20
-90.30342899923333
 30
0.0
 10
381.2089483881546
 20
-89.86419078823566
 30
0.0
  0
SPLINE
  5
F9
330
1F
100
AcDbEntity
  8
0
  6
Continuous
 62
     7
370
    25
100
AcDbSpline
210
0.0
220
0.0
230
1.0
 70
     8
 71
     3
 72
    14
 73
    10
 74
     0
 42
0.00000001
 43
0.00000001
 40
0.0
 40
0.0
 40
0.0
 40
0.0
 40
0.0752853486417305
 40
0.2267631174966531
 40
0.3777039960802848
 40
0.5287637905150074
 40
0.6804193803132782
 40
0.8313223016969327
 40
0.9999999999999999
 40
0.9999999999999999
 40
0.9999999999999999
 40
0.9999999999999999
 10
356.2479606402374
 20
-46.63251948731616
 30
0.0
 10
356.1232291050379
 20
-46.69552464555566
 30
0.0
 10
355.7475316780843
 20
-46.88529923461613
 30
0.0
 10
355.2715041531185
 20
-47.52948137835617
 30
0.0
 10
354.791698841952
 20
-48.56094056865577
 30
0.0
 10
354.4290207761129
 20
-49.94937934835995
 30
0.0
 10
354.1698378988355
 20
-51.66593520194403
 30
0.0
 10
353.9974437905174
 20
-53.76237955486062
 30
0.0
 10
353.9753011112161
 20
-55.46213576494604
 30
0.0
 10
353.9636139939482
 20
-56.35928329997058
 30
0.0
  0
LWPOLYLINE
  5
FA
330
1F
100
AcDbEntity
  8
0
  6
Continuous
 62
     7
370
    25
100
AcDbPolyline
 90
       98
 70
   128
 43
0.0
 10
313.6585274663
 20
-33.091652113
 10
313.5992104348
 20
-31.0117135685
 10
313.4215081364
 20
-29.0089849959
 10
313.1261659163
 20
-27.0918665349
 10
312.7144225425
 20
-25.2683992466
 10
312.1880050098
 20
-23.5462313864
 10
311.5491212962
 20
-21.9325863248
 10
310.8004511021
 20
-20.4342322501
 10
309.9451346104
 20
-19.0574537799
 10
308.9867593157
 20
-17.8080256016
 10
307.9293449771
 20
-16.6911882511
 10
306.7773267579
 20
-15.7116261326
 10
305.5355366227
 20
-14.8734478698
 10
304.2091830709
 20
-14.1801690738
 10
302.8038292903
 20
-13.6346975967
 10
301.3253698231
 20
-13.2393213354
 10
299.780005842
 20
-12.9956986355
 10
298.1742191406
 20
-12.9048513352
 10
296.5147449464
 20
-12.9671604796
 10
294.8085436709
 20
-13.1823647225
 10
293.0627717152
 20
-13.5495614225
 10
291.2847514536
 20
-14.0672104291
 10
289.4819405208
 20
-14.7331405425
 10
287.6619005326
 20
-15.5445586203
 10
285.8322653692
 20
-16.4980612931
 10
284.0007091562
 20
-17.5896492393
 10
282.1749140769
 20
-18.8147439597
 10
280.3625381504
 20
-20.1682069814
 10
278.5711831112
 20
-21.6443614101
 10
276.8083625248
 20
-23.237015741
 10
275.0814702735
 20
-24.9394898285
 10
273.3977495434
 20
-26.7446429045
 10
271.7642624444
 20
-28.6449035297
 10
270.1878603891
 20
-30.6323013507
 10
268.6751553556
 20
-32.6985005303
 10
267.2324921545
 20
-34.8348347112
 10
265.8659218165
 20
-37.0323433653
 10
264.5811762126
 20
-39.2818093777
 10
263.3836440124
 20
-41.5737977061
 10
262.2783480821
 20
-43.898694955
 10
261.2699244169
 20
-46.2467496974
 10
260.3626026961
 20
-48.6081133756
 10
259.5601885424
 20
-50.9728816098
 10
258.8660475595
 20
-53.3311357402
 10
258.283091216
 20
-55.6729844294
 10
257.8137646334
 20
-57.9886051502
 10
257.4600363304
 20
-60.2682853845
 10
257.2233899665
 20
-62.5024633611
 10
257.1048181188
 20
-64.6817681612
 10
257.1048181188
 20
-66.7970590232
 10
257.2233899665
 20
-68.839463682
 10
257.4600363304
 20
-70.8004155826
 10
257.8137646334
 20
-72.6716898114
 10
258.283091216
 20
-74.445437594
 10
258.8660475595
 20
-76.1142192156
 10
259.5601885424
 20
-77.6710352262
 10
260.3626026961
 20
-79.1093557985
 10
261.2699244169
 20
-80.4231481161
 10
262.2783480821
 20
-81.6069016775
 10
263.3836440124
 20
-82.6556514088
 10
264.5811762126
 20
-83.5649984893
 10
265.8659218165
 20
-84.3311288011
 10
267.2324921545
 20
-84.9508289276
 10
268.6751553556
 20
-85.4214996311
 10
270.1878603891
 20
-85.741166755
 10
271.7642624444
 20
-85.9084895043
 10
273.3977495434
 20
-85.9227660694
 10
275.0814702735
 20
-85.7839365693
 10
276.8083625248
 20
-85.4925833031
 10
278.5711831112
 20
-85.0499283078
 10
280.3625381504
 20
-84.4578282322
 10
282.1749140769
 20
-83.7187665498
 10
284.0007091562
 20
-82.8358431422
 10
285.8322653692
 20
-81.8127612969
 10
287.6619005326
 20
-80.6538121747
 10
289.4819405208
 20
-79.3638568111
 10
291.2847514536
 20
-77.9483057272
 10
293.0627717152
 20
-76.413096236
 10
294.8085436709
 20
-74.7646675398
 10
296.5147449464
 20
-73.0099337213
 10
298.1742191406
 20
-71.156254744
 10
299.780005842
 20
-69.2114055818
 10
301.3253698231
 20
-67.1835436079
 10
302.8038292903
 20
-65.0811743802
 10
304.2091830709
 20
-62.9131159657
 10
305.5355366227
 20
-60.6884619551
 10
306.7773267579
 20
-58.4165433202
 10
307.9293449771
 20
-56.1068892775
 10
308.9867593157
 20
-53.7691873186
 10
309.9451346104
 20
-51.4132425779
 10
310.8004511021
 20
-49.0489367065
 10
311.5491212962
 20
-46.6861864248
 10
312.1880050098
 20
-44.3349019286
 10
312.7144225425
 20
-42.0049453223
 10
313.1261659163
 20
-39.7060892535
 10
313.4215081364
 20
-37.4479759235
 10
313.5992104348
 20
-35.2400766444
 10
313.6585274663
 20
-33.091652113
  0
LWPOLYLINE
  5
FB
330
1F
100
AcDbEntity
  8
0
  6
Continuous
 62
     7
370
    25
100
AcDbPolyline
 90
       14
 70
   128
 43
0.0
 10
429.6240395809
 20
-100.0371172825
 10
429.5647225494
 20
-97.957178738
 10
429.387020251
 20
-95.9544501654
 10
429.0916780309
 20
-94.0373317044
 10
428.6799346571
 20
-92.213864416
 10
428.1535171244
 20
-90.4916965558
 10
427.5146334108
 20
-88.8780514943
 10
426.7659632167
 20
-87.3796974195
 10
425.910646725
 20
-86.0029189493
 10
424.9522714303
 20
-84.753490771
 10
423.8948570917
 20
-83.6366534206
 10
422.7428388725
 20
-82.657091302
 10
421.5010487373
 20
-81.8189130393
 10
421.3381429862
 20
-81.7233250237
  0
LWPOLYLINE
  5
FC
330
1F
100
AcDbEntity
  8
0
  6
Continuous
 62
     7
370
    25
100
AcDbPolyline
 90
       38
 70
   128
 43
0.0
 10
381.3413936807
 20
-151.0072340142
 10
381.8314339311
 20
-151.2765939706
 10
383.198004269
 20
-151.8962940971
 10
384.6406674702
 20
-152.3669648005
 10
386.1533725037
 20
-152.6866319244
 10
387.729774559
 20
-152.8539546738
 10
389.363261658
 20
-152.8682312389
 10
391.0469823881
 20
-152.7294017387
 10
392.7738746394
 20
-152.4380484726
 10
394.5366952258
 20
-151.9953934773
 10
396.328050265
 20
-151.4032934017
 10
398.1404261915
 20
-150.6642317193
 10
399.9662212708
 20
-149.7813083116
 10
401.7977774838
 20
-148.7582264663
 10
403.6274126472
 20
-147.5992773442
 10
405.4474526354
 20
-146.3093219806
 10
407.2502635681
 20
-144.8937708966
 10
409.0282838298
 20
-143.3585614055
 10
410.7740557855
 20
-141.7101327092
 10
412.480257061
 20
-139.9553988908
 10
414.1397312552
 20
-138.1017199135
 10
415.7455179566
 20
-136.1568707513
 10
417.2908819377
 20
-134.1290087774
 10
418.7693414049
 20
-132.0266395496
 10
420.1746951855
 20
-129.8585811352
 10
421.5010487373
 20
-127.6339271245
 10
422.7428388725
 20
-125.3620084897
 10
423.8948570917
 20
-123.0523544469
 10
424.9522714303
 20
-120.714652488
 10
425.910646725
 20
-118.3587077474
 10
426.7659632167
 20
-115.994401876
 10
427.5146334108
 20
-113.6316515943
 10
428.1535171244
 20
-111.2803670981
 10
428.6799346571
 20
-108.9504104918
 10
429.0916780309
 20
-106.651554423
 10
429.387020251
 20
-104.393441093
 10
429.5647225494
 20
-102.1855418139
 10
429.6240395809
 20
-100.0371172825
  0
LWPOLYLINE
  5
FD
330
1F
100
AcDbEntity
  8
0
  6
Continuous
 62
     7
370
    25
100
AcDbPolyline
 90
       87
 70
   128
 43
0.0
 10
307.6481198262
 20
-36.5613865883
 10
307.5886994764
 20
-34.7181741409
 10
307.4107554602
 20
-32.9534013051
 10
307.115237186
 20
-31.2764839074
 10
306.7037213716
 20
-29.6963690277
 10
306.1784036319
 20
-28.2214872627
 10
305.5420867643
 20
-26.8597077446
 10
304.7981657947
 20
-25.6182961564
 10
303.9506098634
 20
-24.503875966
 10
303.0039410478
 20
-23.5223930873
 10
301.9632102359
 20
-22.6790841562
 10
300.8339701766
 20
-21.9784485907
 10
299.6222458544
 20
-21.4242245846
 10
298.3345023427
 20
-21.0193691628
 10
296.9776103105
 20
-20.7660424042
 10
295.5588093637
 20
-20.6655959167
 10
294.0856694193
 20
-20.7185656256
 10
292.5660503162
 20
-20.9246689148
 10
291.00805988
 20
-21.2828061339
 10
289.4200106636
 20
-21.791066466
 10
287.8103755968
 20
-22.4467381223
 10
286.1877427791
 20
-23.2463228107
 10
284.5607696586
 20
-24.1855544011
 10
282.9381368409
 20
-25.2594216864
 10
281.3285017741
 20
-26.4621951202
 10
279.7404525577
 20
-27.7874573857
 10
278.1824621215
 20
-29.2281376353
 10
276.6628430185
 20
-30.7765492166
 10
275.189703074
 20
-32.4244306838
 10
273.7709021272
 20
-34.1629898763
 10
272.414010095
 20
-35.9829508286
 10
271.1262665833
 20
-37.8746032616
 10
269.9145422611
 20
-39.827854391
 10
268.7853022019
 20
-41.8322827769
 10
267.7445713899
 20
-43.8771939267
 10
266.7979025743
 20
-45.9516773547
 10
265.950346643
 20
-48.044664794
 10
265.2064256734
 20
-50.1449892512
 10
264.5701088059
 20
-52.2414445866
 10
264.0447910662
 20
-54.3228453038
 10
263.6332752517
 20
-56.3780862294
 10
263.3377569775
 20
-58.3962017639
 10
263.1598129613
 20
-60.3664243877
 10
263.1003926115
 20
-62.2782421107
 10
263.1598129613
 20
-64.121454558
 10
263.3377569775
 20
-65.8862273939
 10
263.6332752517
 20
-67.5631447916
 10
264.0447910662
 20
-69.1432596712
 10
264.5701088059
 20
-70.6181414363
 10
265.2064256734
 20
-71.9799209544
 10
265.950346643
 20
-73.2213325426
 10
266.7979025743
 20
-74.335752733
 10
267.7445713899
 20
-75.3172356116
 10
268.7853022019
 20
-76.1605445428
 10
269.9145422611
 20
-76.8611801083
 10
271.1262665833
 20
-77.4154041144
 10
272.414010095
 20
-77.8202595361
 10
273.7709021272
 20
-78.0735862947
 10
275.189703074
 20
-78.1740327823
 10
276.6628430185
 20
-78.1210630733
 10
278.1824621215
 20
-77.9149597842
 10
279.7404525577
 20
-77.556822565
 10
281.3285017741
 20
-77.0485622329
 10
282.9381368409
 20
-76.3928905767
 10
284.5607696586
 20
-75.5933058883
 10
286.1877427791
 20
-74.6540742979
 10
287.8103755968
 20
-73.5802070125
 10
289.4200106636
 20
-72.3774335788
 10
291.00805988
 20
-71.0521713133
 10
292.5660503162
 20
-69.6114910636
 10
294.0856694193
 20
-68.0630794823
 10
295.5588093637
 20
-66.4151980151
 10
296.9776103105
 20
-64.6766388226
 10
298.3345023427
 20
-62.8566778703
 10
299.6222458544
 20
-60.9650254374
 10
300.8339701766
 20
-59.011774308
 10
301.9632102359
 20
-57.007345922
 10
303.0039410478
 20
-54.9624347722
 10
303.9506098634
 20
-52.8879513443
 10
304.7981657947
 20
-50.794963905
 10
305.5420867643
 20
-48.6946394477
 10
306.1784036319
 20
-46.5981841124
 10
306.7037213716
 20
-44.5167833952
 10
307.115237186
 20
-42.4615424695
 10
307.4107554602
 20
-40.443426935
 10
307.5886994764
 20
-38.4732043112
 10
307.6481198262
 20
-36.5613865883
  0
LWPOLYLINE
  5
FE
330
1F
100
AcDbEntity
  8
0
  6
Continuous
 62
     7
370
    25
100
AcDbPolyline
 90
       77
 70
   128
 43
0.0
 10
435.2808938304
 20
-50.2362224613
 10
435.2205156265
 20
-48.5156317212
 10
435.0397934591
 20
-46.7370831701
 10
434.739961844
 20
-44.9127260981
 10
434.323068935
 20
-43.0550227138
 10
433.7919625334
 20
-41.176663015
 10
433.1502706346
 20
-39.2904781031
 10
432.4023766448
 20
-37.4093525337
 10
431.5533894383
 20
-35.5461363018
 10
430.6091084587
 20
-33.7135570634
 10
429.5759841025
 20
-31.9241331932
 10
428.4610736566
 20
-30.1900882705
 10
427.2719930899
 20
-28.5232675804
 10
426.0168650284
 20
-26.9350571984
 10
424.7042632693
 20
-25.4363062119
 10
423.3431542138
 20
-24.0372526097
 10
421.9428356167
 20
-22.7474533467
 10
420.5128730741
 20
-21.5757190595
 10
419.06303468
 20
-20.5300538816
 10
417.6032243007
 20
-19.6176007664
 10
416.1434139215
 20
-18.8445926938
 10
414.6935755274
 20
-18.2163100928
 10
413.2636129847
 20
-17.7370447708
 10
411.8632943877
 20
-17.4100705956
 10
410.5021853321
 20
-17.2376211327
 10
409.1895835731
 20
-17.2208743865
 10
407.9344555116
 20
-17.3599447544
 10
406.7453749449
 20
-17.6538822448
 10
405.630464499
 20
-18.1006789666
 10
404.5973401428
 20
-18.6972828451
 10
403.6530591632
 20
-19.4396184708
 10
402.8040719567
 20
-20.3226149387
 10
402.0561779669
 20
-21.3402404876
 10
401.414486068
 20
-22.4855437032
 10
400.8833796665
 20
-23.7507010031
 10
400.4664867575
 20
-25.1270700802
 10
400.1666551423
 20
-26.6052489379
 10
399.985932975
 20
-28.175140116
 10
399.9255547711
 20
-29.8260196657
 10
399.985932975
 20
-31.5466104058
 10
400.1666551423
 20
-33.3251589569
 10
400.4664867575
 20
-35.149516029
 10
400.8833796665
 20
-37.0072194133
 10
401.414486068
 20
-38.885579112
 10
402.0561779669
 20
-40.7717640239
 10
402.8040719567
 20
-42.6528895933
 10
403.6530591632
 20
-44.5161058253
 10
404.5973401428
 20
-46.3486850636
 10
405.630464499
 20
-48.1381089338
 10
406.7453749449
 20
-49.8721538566
 10
407.9344555116
 20
-51.5389745466
 10
409.1895835731
 20
-53.1271849286
 10
410.5021853321
 20
-54.6259359152
 10
411.8632943877
 20
-56.0249895173
 10
413.2636129847
 20
-57.3147887804
 10
414.6935755274
 20
-58.4865230675
 10
416.1434139215
 20
-59.5321882454
 10
417.6032243007
 20
-60.4446413607
 10
419.06303468
 20
-61.2176494332
 10
420.5128730741
 20
-61.8459320342
 10
421.9428356167
 20
-62.3251973563
 10
423.3431542138
 20
-62.6521715314
 10
424.7042632693
 20
-62.8246209944
 10
426.0168650284
 20
-62.8413677405
 10
427.2719930899
 20
-62.7022973726
 10
428.4610736566
 20
-62.4083598822
 10
429.5759841025
 20
-61.9615631604
 10
430.6091084587
 20
-61.364959282
 10
431.5533894383
 20
-60.6226236563
 10
432.4023766448
 20
-59.7396271883
 10
433.1502706346
 20
-58.7220016394
 10
433.7919625334
 20
-57.5766984238
 10
434.323068935
 20
-56.3115411239
 10
434.739961844
 20
-54.9351720469
 10
435.0397934591
 20
-53.4569931891
 10
435.2205156265
 20
-51.887102011
 10
435.2808938304
 20
-50.2362224613
  0
LWPOLYLINE
  5
FF
330
1F
100
AcDbEntity
  8
0
  6
Continuous
 62
     7
370
    25
100
AcDbPolyline
 90
       70
 70
   128
 43
0.0
 10
432.0282026369
 20
-48.3584838041
 10
431.9684376802
 20
-46.8092408925
 10
431.7896380413
 20
-45.2038323453
 10
431.4932853103
 20
-43.5555610833
 10
431.0818351593
 20
-41.8780852014
 10
430.5586969938
 20
-40.1853047929
 10
429.9282057014
 20
-38.4912467695
 10
429.1955857315
 20
-36.8099486295
 10
428.3669078039
 20
-35.1553421387
 10
427.449038605
 20
-33.5411378876
 10
426.4495838879
 20
-31.9807116811
 10
425.3768254492
 20
-30.4869937021
 10
424.2396525033
 20
-29.0723613682
 10
423.0474880231
 20
-27.7485367685
 10
421.8102106592
 20
-26.5264895304
 10
420.5380728814
 20
-25.4163459224
 10
419.2416160239
 20
-24.4273049439
 10
417.9315829367
 20
-23.5675621
 10
416.6188289663
 20
-22.8442414907
 10
415.3142320058
 20
-22.2633367782
 10
414.0286023562
 20
-21.8296615221
 10
412.7725931499
 20
-21.5468092921
 10
411.5566120747
 20
-21.4171238908
 10
410.3907351326
 20
-21.4416799323
 10
409.2846231473
 20
-21.6202739375
 10
408.247441711
 20
-21.9514260203
 10
407.2877852357
 20
-22.4323921501
 10
406.4136057372
 20
-23.0591868902
 10
405.6321469421
 20
-23.826616422
 10
404.9498842642
 20
-24.7283215826
 10
404.3724711468
 20
-25.7568305592
 10
403.9046922169
 20
-26.9036208023
 10
403.550423638
 20
-28.159189647
 10
403.3126009912
 20
-29.5131330543
 10
403.1931949497
 20
-30.9542318227
 10
403.1931949497
 20
-32.4705445541
 10
403.3126009912
 20
-34.0495066034
 10
403.550423638
 20
-35.6780341941
 10
403.9046922169
 20
-37.3426328335
 10
404.3724711468
 20
-39.029509133
 10
404.9498842642
 20
-40.7246851045
 10
405.6321469421
 20
-42.4141139859
 10
406.4136057372
 20
-44.0837966374
 10
407.2877852357
 20
-45.7198975429
 10
408.247441711
 20
-47.3088594547
 10
409.2846231473
 20
-48.8375157343
 10
410.3907351326
 20
-50.2931994541
 10
411.5566120747
 20
-51.6638483605
 10
412.7725931499
 20
-52.938104825
 10
414.0286023562
 20
-54.1054099571
 10
415.3142320058
 20
-55.1560910989
 10
416.6188289663
 20
-56.0814419756
 10
417.9315829367
 20
-56.8737948384
 10
419.2416160239
 20
-57.5265840019
 10
420.5380728814
 20
-58.0344002495
 10
421.8102106592
 20
-58.3930356559
 10
423.0474880231
 20
-58.5995184551
 10
424.2396525033
 20
-58.6521376657
 10
425.3768254492
 20
-58.5504572683
 10
426.4495838879
 20
-58.2953198186
 10
427.449038605
 20
-57.888839466
 10
428.3669078039
 20
-57.3343844347
 10
429.1955857315
 20
-56.6365491136
 10
429.9282057014
 20
-55.801115986
 10
430.5586969938
 20
-54.835007714
 10
431.0818351593
 20
-53.7462297749
 10
431.4932853103
 20
-52.5438041256
 10
431.7896380413
 20
-51.2376944437
 10
431.9684376802
 20
-49.8387235655
 10
432.0282026369
 20
-48.3584838041
  0
LWPOLYLINE
  5
100
330
1F
100
AcDbEntity
  8
0
  6
Continuous
 62
     7
370
    25
100
AcDbPolyline
 90
       21
 70
   128
 43
0.0
 10
298.0311104683
 20
4.8806804412
 10
297.9449288525
 20
5.5128343021
 10
297.6885060824
 20
6.1294224369
 10
297.2681561377
 20
6.7152623995
 10
296.694229429
 20
7.2559288656
 10
295.9808579367
 20
7.7381088326
 10
295.1456072344
 20
8.1499294292
 10
294.2090439665
 20
8.4812502658
 10
293.194229429
 20
8.7239131237
 10
292.1261517236
 20
8.8719428379
 10
291.0311104683
 20
8.9216944258
 10
289.9360692131
 20
8.8719428379
 10
288.8679915077
 20
8.7239131237
 10
287.8531769702
 20
8.4812502658
 10
286.9166137023
 20
8.1499294292
 10
286.081363
 20
7.7381088326
 10
285.3679915077
 20
7.2559288656
 10
284.794064799
 20
6.7152623995
 10
284.3737148543
 20
6.1294224369
 10
284.1172920842
 20
5.5128343021
 10
284.0311104683
 20
4.8806804412
  0
ENDSEC
  0
SECTION
  2
OBJECTS
  0
DICTIONARY
  5
C
330
0
100
AcDbDictionary
281
     1
  3
ACAD_GROUP
350
D
  3
ACAD_LAYOUT
350
1A
  3
ACAD_MLINESTYLE
350
17
  3
ACAD_PLOTSETTINGS
350
19
  3
ACAD_PLOTSTYLENAME
350
E
  3
ACAD_SCALELIST
350
47
  3
DWGPROPS
350
101
  0
DICTIONARY
  5
D
102
{ACAD_REACTORS
330
C
102
}
330
C
100
AcDbDictionary
281
     1
  0
DICTIONARY
  5
1A
102
{ACAD_REACTORS
330
C
102
}
330
C
100
AcDbDictionary
281
     1
  3
Layout1
350
1E
  3
Layout2
350
26
  3
Model
350
22
  0
DICTIONARY
  5
17
102
{ACAD_REACTORS
330
C
102
}
330
C
100
AcDbDictionary
281
     1
  3
Standard
350
18
  0
DICTIONARY
  5
19
102
{ACAD_REACTORS
330
C
102
}
330
C
100
AcDbDictionary
281
     1
  0
ACDBDICTIONARYWDFLT
  5
E
102
{ACAD_REACTORS
330
C
102
}
330
C
100
AcDbDictionary
281
     1
  3
Normal
350
F
100
AcDbDictionaryWithDefault
340
F
  0
DICTIONARY
  5
47
102
{ACAD_REACTORS
330
C
102
}
330
C
100
AcDbDictionary
281
     1
  3
A0
350
48
  3
A1
350
49
  3
A2
350
4A
  3
A3
350
4B
  3
A4
350
4C
  3
A5
350
4D
  3
A6
350
4E
  3
A7
350
4F
  3
A8
350
50
  3
A9
350
51
  3
B0
350
52
  3
B1
350
53
  3
B2
350
54
  3
B3
350
55
  3
B4
350
56
  3
B5
350
57
  3
B6
350
58
  3
B7
350
59
  3
B8
350
5A
  3
B9
350
5B
  3
C0
350
5C
  3
C1
350
5D
  3
C2
350
5E
  3
C3
350
5F
  3
C4
350
60
  3
C5
350
61
  3
C6
350
62
  3
C7
350
63
  3
C8
350
64
  3
C9
350
65
  3
D0
350
66
  3
D1
350
67
  3
D2
350
68
  0
XRECORD
  5
101
102
{ACAD_REACTORS
330
C
102
}
330
C
100
AcDbXrecord
280
     1
  1
DWGPROPS COOKIE
  2

  3

  4

  6

  7

  8
b.kav
  9

300
=
301
=
302
=
303
=
304
=
305
=
306
=
307
=
308
=
309
=
 40
0.0
 41
2459741.481068021
 42
2459741.481068275
  1

 90
        0
  0
LAYOUT
  5
1E
102
{ACAD_REACTORS
330
1A
102
}
330
1A
100
AcDbPlotSettings
  1

  2
none_device
  4

  6

 40
0.0
 41
0.0
 42
0.0
 43
0.0
 44
0.0
 45
0.0
 46
0.0
 47
0.0
 48
0.0
 49
0.0
140
0.0
141
0.0
142
1.0
143
1.0
 70
   688
 72
     1
 73
     0
 74
     5
  7

 75
    16
147
1.0
148
0.0
149
0.0
100
AcDbLayout
  1
Layout1
 70
     1
 71
     1
 10
0.0
 20
0.0
 11
420.0
 21
297.0
 12
0.0
 22
0.0
 32
0.0
 14
1.0000000000E+20
 24
1.0000000000E+20
 34
1.0000000000E+20
 15
-1.0000000000E+20
 25
-1.0000000000E+20
 35
-1.0000000000E+20
146
0.0
 13
0.0
 23
0.0
 33
0.0
 16
1.0
 26
0.0
 36
0.0
 17
0.0
 27
1.0
 37
0.0
 76
     0
330
1B
  0
LAYOUT
  5
26
102
{ACAD_REACTORS
330
1A
102
}
330
1A
100
AcDbPlotSettings
  1

  2
none_device
  4

  6

 40
0.0
 41
0.0
 42
0.0
 43
0.0
 44
0.0
 45
0.0
 46
0.0
 47
0.0
 48
0.0
 49
0.0
140
0.0
141
0.0
142
1.0
143
1.0
 70
   688
 72
     1
 73
     0
 74
     5
  7

 75
    16
147
1.0
148
0.0
149
0.0
100
AcDbLayout
  1
Layout2
 70
     1
 71
     2
 10
0.0
 20
0.0
 11
0.0
 21
0.0
 12
0.0
 22
0.0
 32
0.0
 14
0.0
 24
0.0
 34
0.0
 15
0.0
 25
0.0
 35
0.0
146
0.0
 13
0.0
 23
0.0
 33
0.0
 16
1.0
 26
0.0
 36
0.0
 17
0.0
 27
1.0
 37
0.0
 76
     0
330
23
  0
LAYOUT
  5
22
102
{ACAD_REACTORS
330
1A
102
}
330
1A
100
AcDbPlotSettings
  1

  2
none_device
  4
Letter_(8.50_x_11.00_Inches)
  6

 40
6.35
 41
6.35
 42
6.35000508
 43
6.35000508
 44
215.9
 45
279.4
 46
0.0
 47
0.0
 48
0.0
 49
0.0
140
0.0
141
0.0
142
1.0
143
1.0
 70
  1712
 72
     1
 73
     0
 74
     0
  7

 75
     0
147
1.0
148
0.0
149
0.0
100
AcDbLayout
  1
Model
 70
     1
 71
     0
 10
0.0
 20
0.0
 11
279.4
 21
215.9
 12
0.0
 22
0.0
 32
0.0
 14
0.0
 24
0.0
 34
0.0
 15
279.4
 25
215.9
 35
0.0
146
0.0
 13
0.0
 23
0.0
 33
0.0
 16
1.0
 26
0.0
 36
0.0
 17
0.0
 27
1.0
 37
0.0
 76
     0
330
1F
331
29
  0
MLINESTYLE
  5
18
102
{ACAD_REACTORS
330
17
102
}
330
17
100
AcDbMlineStyle
  2
Standard
 70
     0
  3

 62
   256
 51
90.0
 52
90.0
 71
     2
 49
0.5
 62
   256
  6
BYLAYER
 49
-0.5
 62
   256
  6
BYLAYER
  0
ACDBPLACEHOLDER
  5
F
102
{ACAD_REACTORS
330
E
102
}
330
E
  0
SCALE
  5
48
102
{ACAD_REACTORS
330
47
102
}
330
47
100
AcDbScale
 70
     0
300
1:1
140
1.0
141
1.0
290
     1
  0
SCALE
  5
49
102
{ACAD_REACTORS
330
47
102
}
330
47
100
AcDbScale
 70
     0
300
1:2
140
1.0
141
2.0
290
     0
  0
SCALE
  5
4A
102
{ACAD_REACTORS
330
47
102
}
330
47
100
AcDbScale
 70
     0
300
1:4
140
1.0
141
4.0
290
     0
  0
SCALE
  5
4B
102
{ACAD_REACTORS
330
47
102
}
330
47
100
AcDbScale
 70
     0
300
1:5
140
1.0
141
5.0
290
     0
  0
SCALE
  5
4C
102
{ACAD_REACTORS
330
47
102
}
330
47
100
AcDbScale
 70
     0
300
1:8
140
1.0
141
8.0
290
     0
  0
SCALE
  5
4D
102
{ACAD_REACTORS
330
47
102
}
330
47
100
AcDbScale
 70
     0
300
1:10
140
1.0
141
10.0
290
     0
  0
SCALE
  5
4E
102
{ACAD_REACTORS
330
47
102
}
330
47
100
AcDbScale
 70
     0
300
1:16
140
1.0
141
16.0
290
     0
  0
SCALE
  5
4F
102
{ACAD_REACTORS
330
47
102
}
330
47
100
AcDbScale
 70
     0
300
1:20
140
1.0
141
20.0
290
     0
  0
SCALE
  5
50
102
{ACAD_REACTORS
330
47
102
}
330
47
100
AcDbScale
 70
     0
300
1:30
140
1.0
141
30.0
290
     0
  0
SCALE
  5
51
102
{ACAD_REACTORS
330
47
102
}
330
47
100
AcDbScale
 70
     0
300
1:40
140
1.0
141
40.0
290
     0
  0
SCALE
  5
52
102
{ACAD_REACTORS
330
47
102
}
330
47
100
AcDbScale
 70
     0
300
1:50
140
1.0
141
50.0
290
     0
  0
SCALE
  5
53
102
{ACAD_REACTORS
330
47
102
}
330
47
100
AcDbScale
 70
     0
300
1:100
140
1.0
141
100.0
290
     0
  0
SCALE
  5
54
102
{ACAD_REACTORS
330
47
102
}
330
47
100
AcDbScale
 70
     0
300
2:1
140
2.0
141
1.0
290
     0
  0
SCALE
  5
55
102
{ACAD_REACTORS
330
47
102
}
330
47
100
AcDbScale
 70
     0
300
4:1
140
4.0
141
1.0
290
     0
  0
SCALE
  5
56
102
{ACAD_REACTORS
330
47
102
}
330
47
100
AcDbScale
 70
     0
300
8:1
140
8.0
141
1.0
290
     0
  0
SCALE
  5
57
102
{ACAD_REACTORS
330
47
102
}
330
47
100
AcDbScale
 70
     0
300
10:1
140
10.0
141
1.0
290
     0
  0
SCALE
  5
58
102
{ACAD_REACTORS
330
47
102
}
330
47
100
AcDbScale
 70
     0
300
100:1
140
100.0
141
1.0
290
     0
  0
SCALE
  5
59
102
{ACAD_REACTORS
330
47
102
}
330
47
100
AcDbScale
 70
     0
300
1/128" = 1'-0"
140
0.0078125
141
12.0
290
     0
  0
SCALE
  5
5A
102
{ACAD_REACTORS
330
47
102
}
330
47
100
AcDbScale
 70
     0
300
1/64" = 1'-0"
140
0.015625
141
12.0
290
     0
  0
SCALE
  5
5B
102
{ACAD_REACTORS
330
47
102
}
330
47
100
AcDbScale
 70
     0
300
1/32" = 1'-0"
140
0.03125
141
12.0
290
     0
  0
SCALE
  5
5C
102
{ACAD_REACTORS
330
47
102
}
330
47
100
AcDbScale
 70
     0
300
1/16" = 1'-0"
140
0.0625
141
12.0
290
     0
  0
SCALE
  5
5D
102
{ACAD_REACTORS
330
47
102
}
330
47
100
AcDbScale
 70
     0
300
3/32" = 1'-0"
140
0.09375
141
12.0
290
     0
  0
SCALE
  5
5E
102
{ACAD_REACTORS
330
47
102
}
330
47
100
AcDbScale
 70
     0
300
1/8" = 1'-0"
140
0.125
141
12.0
290
     0
  0
SCALE
  5
5F
102
{ACAD_REACTORS
330
47
102
}
330
47
100
AcDbScale
 70
     0
300
3/16" = 1'-0"
140
0.1875
141
12.0
290
     0
  0
SCALE
  5
60
102
{ACAD_REACTORS
330
47
102
}
330
47
100
AcDbScale
 70
     0
300
1/4" = 1'-0"
140
0.25
141
12.0
290
     0
  0
SCALE
  5
61
102
{ACAD_REACTORS
330
47
102
}
330
47
100
AcDbScale
 70
     0
300
3/8" = 1'-0"
140
0.375
141
12.0
290
     0
  0
SCALE
  5
62
102
{ACAD_REACTORS
330
47
102
}
330
47
100
AcDbScale
 70
     0
300
1/2" = 1'-0"
140
0.5
141
12.0
290
     0
  0
SCALE
  5
63
102
{ACAD_REACTORS
330
47
102
}
330
47
100
AcDbScale
 70
     0
300
3/4" = 1'-0"
140
0.75
141
12.0
290
     0
  0
SCALE
  5
64
102
{ACAD_REACTORS
330
47
102
}
330
47
100
AcDbScale
 70
     0
300
1" = 1'-0"
140
1.0
141
12.0
290
     0
  0
SCALE
  5
65
102
{ACAD_REACTORS
330
47
102
}
330
47
100
AcDbScale
 70
     0
300
1-1/2" = 1'-0"
140
1.5
141
12.0
290
     0
  0
SCALE
  5
66
102
{ACAD_REACTORS
330
47
102
}
330
47
100
AcDbScale
 70
     0
300
3" = 1'-0"
140
3.0
141
12.0
290
     0
  0
SCALE
  5
67
102
{ACAD_REACTORS
330
47
102
}
330
47
100
AcDbScale
 70
     0
300
6" = 1'-0"
140
6.0
141
12.0
290
     0
  0
SCALE
  5
68
102
{ACAD_REACTORS
330
47
102
}
330
47
100
AcDbScale
 70
     0
300
1'-0" = 1'-0"
140
12.0
141
12.0
290
     0
  0
ENDSEC
  0
EOF
